-------------------------------------------------------------------------------
	       Get Your Hands Off My Woman - The Darkness
-------------------------------------------------------------------------------

Tabbed by: Robbie Cook
Email: [email protected]

Tuning: Standard

Unfortunately I haven't been able to figure out the solo, if someone knows it
then please send it to me, thanks.  I hope this helps.

                                  
                          Intro (Not very accurate)

                      (Bend both notes with a whammy bar)        

e|---------------------------------------------------------------------------|
B|---------------------------------------------------------------------------|
G|---7----5------------------------------------------------------------------|
D|---7----5------------------------------------------------------------------|
A|---5----3------------------------------------------------------------------|
E|---------------------------------------------------------------------------|

                  
                                    Chorus

e|---------------------------------------------------------------------------|
B|---------------------------------------------------------------------------|
G|---7--7-----------------5--5-----------------------------------------------|
D|---7--7---8--8---3--3---5--5---5--5---3--3---------------------------------|
A|---5--5---8--8---3--3---3--3---5--5---3--3---------------------------------|
E|----------6--6---1--1----------3--3---1--1---------------------------------|

e|---------------------------------------------------------------------------|
B|---------------------------------------------------------------------------|
G|---7--7----------------5--5---5--5--5--5-----------------------------------|
D|---7--7--8--8---3--3---5--5---5--5--5--5-----------------------------------|
A|---5--5--8--8---3--3---3--3---3--3--3--3-----------------------------------|
E|---------6--6---1--1-------------------------------------------------------|


                                    Verse         

e|---------------------------------------------------------------------------|
B|---------------------------------------------------------------------------|
G|---7--7--7--7--7--7--7--7--7--7--------------------------------------------|
D|----------------------------------3--5-5--3--------------------------------|
A|---5--5--5--5--5--5--5--5--5--5---3--5-5--3--------------------------------|
E|----------------------------------1--3-3--1--------------------------------|

e|---------------------------------------------------------------------------|
B|---------------------------------------------------------------------------|
G|---------------------------------------------------------------------------|
D|---3--5--5--3--5-----------------------------------------------------------|
A|---3--5--5--3--5-----------------------------------------------------------|
E|---1--3--3--1--3-----------------------------------------------------------|


                       Pre Chorus (Only after verses)

e|---------------------------------------------------------------------------|
B|---------------------------------------------------------------------------|
G|---------------------------------------------------------------------------|
D|---3--5--5--3--5-----------------------------------------------------------|
A|---3--5--5--3--5-----------------------------------------------------------|
E|---1--3--3--1--3-----------------------------------------------------------|

e|---------------------------------------------------------------------------|
B|---------------------------------------------------------------------------|
G|---------------------------------------------------------------------------|
D|---2--3--4--5--6--7--8--9--------------------------------------------------|
A|---2--3--4--5--6--7--8--9--------------------------------------------------|
E|---0--1--2--3--4--5--6--7--------------------------------------------------|


                                  Chorus

e|---------------------------------------------------------------------------|
B|---------------------------------------------------------------------------|
G|---7--7-----------------5--5-----------------------------------------------|
D|---7--7---8--8---3--3---5--5---5--5---3--3---------------------------------|
A|---5--5---8--8---3--3---3--3---5--5---3--3---------------------------------|
E|----------6--6---1--1----------3--3---1--1---------------------------------|

e|---------------------------------------------------------------------------|
B|---------------------------------------------------------------------------|
G|---7--7----------------5--5---5--5--5--5-----------------------------------|
D|---7--7--8--8---3--3---5--5---5--5--5--5-----------------------------------|
A|---5--5--8--8---3--3---3--3---3--3--3--3-----------------------------------|
E|---------6--6---1--1-------------------------------------------------------|


Текст, аккорды и табулатура для песни "Get Your Hands Off My Woman", исполняет "Darkness".
Используемые в песне аккорды можно найти в разделе Как брать аккорды. Аккорды для шестиструнной гитары. Другие песни можно найти на нашем сайте, воспользовавшись алфавитным указателем вверху страницы.


 
Ошибка в тексте? Выделите ошибку и нажмите Ctrl+Enter