tuning low to high e, a, d, g

intro/chorus
|-----------------------------------------------------|
|-----------------------------------------------------|
|-5-5---------3-3-0----------5-5---------3-3--3-0-3-4-|
|-----6-61-1-------3-3-1-1------6-61-1--------------|

verse 1
|-----------------------------------------------------------------|
|-0-0-0-0-0-0-0-0-0-0-0-0-0-0-0-0-0-0-0-0-0-0-0-0-0-0-0-----------|
|-----------------------------------------------------------------| x2
|-------------------------------------------------------1-3-3-1-1-|

|-------------------------------------------------------------------------|
|-------------------------------------------------------------------------|
|-------------------------------------------------------------------------|
|-3-3-1-3---1-3-3-1-3----/12-12-12-12-12-12-12-12-12-12-12-12-12-12-12-12-|

|-------------------------|
|-------------------------|
|-------------------------|
|-0-0-1-1-2-2-3-3-4-5-6-7-|

verse 2
|-----------------------------------------------------------------|
|-0-0-0-0-0-0-0-0-0-0-0-0-0-0-0-0-0-0-0-0-0-0-0-0-0-0-0-3-5-5-3-3-|
|-----------------------------------------------------------------| x2
|-----------------------------------------------------------------|

|-------------------------------------------------------------------------|
|-------------------------------------------------------------------------|
|-------------------------------------------------------------------------|
|-3-3-1-3---1-3-3-1-3----/12-12-12-12-12-12-12-12-12-12-12-12-12-12-12-12-|

|-------------------------|
|-------------------------|
|-------------------------|
|-0-0-1-1-2-2-3-3-4-5-6-7-|

backing for solo 
|-------------------------|
|-------------------------|
|-------------------------| x4
|/12-12-12-12-12-12-12-12-|

|-------------------------|
|-------------------------|
|-------------------------|
|-0-0-1-1-2-2-3-3-4-5-6-7-|

i think thats it sounds rite 2 me. any comments or wotever email me
[email protected]


Текст, аккорды и табулатура для песни "Get Your Hands Off My Woman", исполняет "Darkness".
Используемые в песне аккорды можно найти в разделе Как брать аккорды. Аккорды для шестиструнной гитары. Другие песни можно найти на нашем сайте, воспользовавшись алфавитным указателем вверху страницы.


 
Ошибка в тексте? Выделите ошибку и нажмите Ctrl+Enter