Song: Christmas Time (Don't Let The Bells End)
Artist: The Darkness
Tabbed By: Ash_2608

Standard Tuning - EADGBe

[the dots along the top of some parts of the tab show the beat]



|-----------------------------------------------------------------------|
|-14----14---12-12h14p12-10-------14-12h14p12-15---14h15-12-------10-12-|
|-----------------------------------------------------------------------|
|-----------------------------------------------------------------------|
|-----------------------------------------------------------------------|
|-----------------------------------------------------------------------|


  .     .     .     .     .     .     .     .
|-----------------------------0-----0--------------|
|-2-----------2-----3-----------2-----2--------0h2-|
|-2-----2-----2-----2-------2-----2----------------|
|-2-----2-----2-----2-----2------------------------|
|-0-----x-----0-----0------------------------------|
|-------4------------------------------------------|

  .     .     .     .     .     .     .     .     
|--------------------------------------------------|
|-5-----3-----2-----0-----3-------------2-3-5-3-2--|
|---2-----2-----2-----2---2-------------2-2-2-2-2--|
|-----0-----0-----0-----0-0-------------0-0-0-0-0--|
|--------------------------------------------------|
|--------------------------------------------------|

  .     .     .     .     .     .     .     .
|-----------------------------0-----0--------------|
|-2-----------2-----3-----------2-----2--------0h2-|
|-2-----2-----2-----2-------2-----2----------------|
|-2-----2-----2-----2-----2------------------------|
|-0-----x-----0-----0------------------------------|
|-------4------------------------------------------|

  .     .     .     .     .     .     .     .     
|---------------------------------------------------|
|-5-----3-----2-----0-----3-------------------------|
|---2-----2-----2-----2---2-------------------------|
|-----0-----0-----0-----0-0-------------------------|
|-------------------------------------------------0-|
|-------------------------------------------10-12---|

  .     .     .     .     .     .     .     .
|---------------------------------------------------|
|---------------------------------------------------|
|---------------------------------------------------|
|---------------------------------------------------|
|-2------------------0-----2----4-----5------7------|
|---------------------------------------------------|


  .     .     .     .     .     .     .     .
|-------------------------------------------------|
|-------------------------------------------------|
|-------------------7-----------7-----4-----4-6-4-|
|-7-----6-----4-----7-----7-----7-----4-----4-6-4-|
|-7-----6-----4-----5-----7-----5-----2-----2-4-2-|
|-5-----4-----2-----------5-----------------------|

  .     .     .     .     .     .     .     .
|-------------------------------------------------|
|-------------------------------------------------|
|-------------------7-----------7-----4-----4-6-4-|
|-7-----6-----4-----7-----7-----7-----4-----4-6-4-|
|-7-----6-----4-----5-----7-----5-----2-----2-4-2-|
|-5-----4-----2-----------5-----------------------|



|------------------------------------------------------------|
|------------------------------------------------------------|
|-9-----9---7-7h9p7-5------9-7h9p7-5-10---9h10---7-------5-7-|
|------------------------------------------------------------|
|------------------------------------------------------------|
|------------------------------------------------------------|

|------------------------------------------------------------|
|----------12------------------------------------------------|
|-9-----9-----7h9p7-5-------9-7h9p7-5-10--9h10/12------------|
|------------------------------------------------------------|
|------------------------------------------------------------|
|------------------------------------------------------------|



repeat first verse



repeat first chorus



|-0-----0-----0-----0-----0-----0-----2-0---2-0---|
|---3-2---3-2---3-2---3-2---3-2---3-2-----3-----3-|
|-------------------------------------------------|
|-------------------------------------------------|
|-------------------------------------------------|
|-------------------------------------------------|

|-0-----0-----0-----0-----0-----0-----2-0---2-0---|
|---3-2---3-2---3-2---3-2---3-2---3-2-----3-----3-|
|-------------------------------------------------|
|-------------------------------------------------|
|-------------------------------------------------|
|-------------------------------------------------|

  .     .     .     .     .     .     .     .
|--------------------------------------------------|
|--------------------------------------------------|
|--------------------------------------------------|
|-7-----------------7-----4------------------------|
|-7-----------------7-----4------------------------|
|-5-----------------5-----2------------------------|

  .     .     .     .     .     .     .        .
|-------------------------------------------------------|
|-------------------------------------------------------|
|-4-----------------4-----7-7-7-9-9-9-11-11-11-12-12-12-|
|-4-----------------4-----7-7-7-9-9-9-11-11-11-12-12-12-|
|-2-----------------2-----5-5-5-7-7-7-9--9--9--10-10-10-|
|-------------------------------------------------------|
[PM                         - -   - -    -  -     -  -  ]


 [i couldnt really work out the solo because theres a two-part guitar
harmony going on.  This is the best I could do]

|------------------------------------------------------------|
|------------------------------------------------------------|
|-9-----9---7-7h9p7-5------9-7h9p7-5-10---9h10p9-7-------5-7-|
|------------------------------------------------------------|
|------------------------------------------------------------|
|------------------------------------------------------------|

|---------------------------------------------------------------|
|---------------------------------------------------------------|
|-7b(9)r(7)b(9)-5-7b(9)r(7)-7h9p7-5-------9-7h9p7-5-10--9h10/12-|
|---------------------------------------------------------------|
|---------------------------------------------------------------|
|---------------------------------------------------------------|

|----------------------------------------------------------|
|----------------------------------------------------------|
|-16-14-12-11-9-11-9-11-9-11-9-4-5-5-5----5-4-2-9b(11)r(9)-|
|----------------------------------------------------------|
|----------------------------------------------------------|
|----------------------------------------------------------|
[PM                                       - - -            ]

|----------------------------------------------------------------------------|
|----------------------------------------------------------------------------|
|-16-16-16-----16-16-16-14-14h16-12----14b(16)r(14)-12-10-12-14-14b(16)r(14)-|
|----------------------------------------------------------------------------|
|----------------------------------------------------------------------------|
|----------------------------------------------------------------------------|



Текст, аккорды и табулатура для песни "Christmas Time", исполняет "Darkness".
Используемые в песне аккорды можно найти в разделе Как брать аккорды. Аккорды для шестиструнной гитары. Другие песни можно найти на нашем сайте, воспользовавшись алфавитным указателем вверху страницы.


 
Ошибка в тексте? Выделите ошибку и нажмите Ctrl+Enter