Clean Guitar

--0----------------0-----------------0--------|
--------------------0-------------------------|
|-6---6---6----6---4---4---4-----6---7---7---7----7-------|
|--7---7---7----7---6---6---6---------9---9---9----9------|
|---9---9---9--------7---7---7---------9---9---9----------|
----------------------------------------------|

CG
|---------0---------------------------------------|
--------------------------------------|
|-6---6-----7-6-4--4------------------------------|
|--7---7---------7--------------------------------|
|---9---9-----------------------------------------|
--------------------------------------|


Synthesizer

------------------------------------------------|
------------------------------------------------|
|---11---9---7---6------------------------------------------|
------------------------------------------------|
------------------------------------------------|
------------------------------------------------|

CG
--0----------------0-----------------0-------|
--------------------0------------------------|
|-6---6---6----6---4---4---4-----6---7---7---7----7------|
|--7---7---7----7---6---6---6---------9---9---9----9-----|
|---9---9---9--------7---7---7---------9---9---9---------|
---------------------------------------------|

CG
|---------0-------------------------------------|
-------7----------------------------|
|-6---6-----7-6-7-9-----------------------------|
|--7---7----------------------------------------|
|---9---9---------------------------------------|
------------------------------------|

Then, the electric guitar starts to play, at the same time as this.....

CG
----------------------------------------------|
----------------------------------------------|
----------------------------------------------|
|--7---7---7---7---6---6---6---6---7---7---7---7----------|
|---9---9---9---9---7---7---7---7---99--99--99--99--------|
|----9---9---9---9---9---9---9---9------------------------|

--------------------------------|
--------------------------------|
--------------------------------|
|--6---6---6---6---2---2---2---2------------|
|---7---7---7---7---4---4---4---4-----------|
|----9---9---9---9---5---5---5---5----------|  

Regards, Kantele


Текст, аккорды и табулатура для песни "Tidal Tantrum", исполняет "Dark Tranquillity".
Используемые в песне аккорды можно найти в разделе Как брать аккорды. Аккорды для шестиструнной гитары. Другие песни можно найти на нашем сайте, воспользовавшись алфавитным указателем вверху страницы.


 
Ошибка в тексте? Выделите ошибку и нажмите Ctrl+Enter