Gtr I- Tune to Eb  (Eb,Ab,Db,Gb,Bb,Eb)
Gtr II - Tune To Dropped D Eb (C#,Ab,Db,Gb,Bb,Eb)

Riff A.1
------------1---1---0--|
|--3--------------------3---3---3--|
|--2-------------------------------|Gtr I
|--0---0-0-0-0-0-0-0-0-------------|
-----------------------|
-----------------------|
|      . . . . . . . .             |
|                                  |
------------1---1---0--|
|--3--------------------3---3---3--|
|--2-------------------------------|Gtr II
|--0-------------------------------|
-----------------------|
-----------------------|
                      

Repeat Riff A.1 (1 Time)

Riff A.2
|--0--------------------1---1---0--|
|--3--------------------3---3---3--|
|------2-2-2-2-2-2-2-2-------------|Gtr I
-----------------------|
-----------------------|
-----------------------|
|      . . . . . . . .             |
|                                  |
|--0--------------------1---1---0--|
|--3--------------------3---3---3--|
-----------------------|Gtr II
-----------------------|
-----------------------|
-----------------------|



|--0--------------------1---3-----|
|--3--------------------3---3-----|
|------2-2-2-2-2-2-2-2-------------|Gtr I
-----------------------|
-----------------------|
-----------------------|
|      . . . . . . . .             |
|                                  |
|--0--------------------1---3---3--|
|--3--------------------3---3---3--|
-----------------------|Gtr I
-----------------------|
-----------------------|
-----------------------|


Repeat Riff A.1 (2 Times)
Repeat Riff A.2 (1 Time)

Riff A.3
------------1---1---0--|
|--3--------------------3---3---3--|
|--2-------------------------------|Gtr I
|--0---0-0-0-0-0-0-0-0-------------|
-----------------------|
-----------------------|
|      . . . . . . . .             |
|                                  |
-----------------------|
-----------------------|
-----------------------|Gtr II
|----------0-0-0--------3---3---2--|
-----------------------|
|--0-----------------0-------------|
                      

Repeat Riff A.3 (1 Time)


Riff A.4
|--0--------------------1---1---0--|
|--3--------------------3---3---3--|
|------2-2-2-2-2-2-2-2-------------|Gtr I
-----------------------|
-----------------------|
-----------------------|
|      . . . . . . . .             |
|                                  |
-----------------------|
-----------------------|
-----------------------|Gtr II
|----------2-2-2--------3---3---2--|
|--0-----------------0-------------|
-----------------------|



|--0--------------------1---3-----|
|--3--------------------3---3-----|
|------2-2-2-2-2-2-2-2-------------|Gtr I
-----------------------|
-----------------------|
-----------------------|
|      . . . . . . . .             |
|                                  |
-----------------------|
-----------------------|
-----------------------|Gtr II
|----------2-2-2--------3---5-----|
|--0-----------------0-------------|
-----------------------|


Repeat Riff A.3 (2 Times)
Repeat Riff A.4 (1 Time)

Riff A.5
------------1---1---0--|
|--3--------------------3---3---3--|
|--2-------------------------------|Gtr I
|--0---0-0-0-0-0-0-0-0-------------|
-----------------------|
-----------------------|
|      . . . . . . . .             |
|                                  |
-----------------------|
-----------------------|
-----------------------|Gtr II
|--0---------(0)--------7---7---5--|
|--0---------(0)--------8---8---7--|
|--0---------(0)-------------------|
                      

Repeat Riff A.5 (1 Time)


Riff A.6
|--0--------------------1---1---0--|
|--3--------------------3---3---3--|
|------2-2-2-2-2-2-2-2-------------|Gtr I
-----------------------|
-----------------------|
-----------------------|
|      . . . . . . . .             |
|                                  |
-----------------------|
-----------------------|
-----------------------|Gtr II
|--2--------------------3---3---2--|
|--3--------------------5---5---3--|
-----------------------|



|--0--------------------1---3-----|
|--3--------------------3---3-----|
|------2-2-2-2-2-2-2-2-------------|Gtr I
-----------------------|
-----------------------|
-----------------------|
|      . . . . . . . .             |
|                                  |
-----------------------|
-----------------------|
-----------------------|Gtr II
|--2--------------------3---5--5---|
|--3--------------------5---5--5---|
-----------------------|

Repeat Riff A.5 (2 Times)
Repeat Riff A.6 (1 Time)


Riff B.1
------------5---------|
|-----6-----6-----5-----------5-6-|
----------------------|Gtr I
|-------7-----7-----7-----7-------|
|-8-------8-----8-----8-----8-----|
----------------------|
|                                 |
----------------------|
----------------------|
----------------------|Gtr I
-------------------h--|
|-0--------------------0------0-1-|
|-0--------------------0----3-----|


------------5---------|
|-----6-----6-----5-----------5-6-|
----------------------|Gtr I
|-------7-----7-----7-----7-------|
|-8-------8-----8-----8-----8-----|
----------------------|
|                                 |
----------------------|
----------------------|
----------------------|Gtr I
-------------------h--|
|-3--------------------3------0-1-|
|-3--------------------3----3-----|


Riff B.2
--------------------|
--------------------|
|-----5-----5-----5-----5-----5-|Gtr I
--------------------|
|---7-----7-----7-----7-----7---|
|-8-----8-----8-----8-----8-----|
|                               |
--------------------|
--------------------|
--------------------|Gtr I
|-5-------------------5---------|
|-3-------------------3---------|
--------------------|

Repeat Riff B.1 (1 Time)
Repeat Riff B.2 (1 Time)

Riff C.1 
----------------------|
|-----6---------------------------|
5---------------------|Gtr I
|-------7-----7--------------h----|
|-8-------8-----8-7---7-----7-8---|
----------------------|

Repeat Riff C.1 (1 Time)

Riff C.2
----------------------|
----------------------| *-play note 1st time only--not on repeat
|-----5-----5-----5-----5-----*5*-|Gtr I
|-------5-----5-----5-----5-------|
|-7-------7-----7-----7-----7-----|
----------------------|

Repeat Riff C.1 (2 Times)
Repeat Riff C.2 (1 Time)


Riff D.1
|-5-------5-------5-------6-------|
-----------------8----|
----------------------|Gtr I
|---7---7---7---7---7---7---------|
|-----8-------8-------8-----------|
----------------------|

Repeat Riff D.1 (1 Time)

Riff D.2
----------------------|
|-6---------------8-------5-------|
|---------7---------5---5---5---5-|Gtr I
|---7---7---7---7-----5-------5---|
|-----8-------8-------------------|
----------------------|

Riff D.3
|---------6----------------8----------|
|-6---------------8-------------11----|
|---7---7---7---7---9----9------------|Gtr I
|-----8-------8-------10-----10----10-|
--------------------------|
--------------------------|

Repeat Riff D.1 (2 Times)

Riff D.4
----------------------|
|-6---------------8-------5--(5)--|
|---------7---------5---5-5--(5)--|Gtr I
|---7---7---7---7-----5-----------|
|-----8-------8-------------------|
----------------------|



Riff E
-------------------3-----------------------10------6---|
|-10--------6---------5--------5-------6--------5-------------------|
-------------------0------------------------7------3---|Gtr I
|--7--------3---------7----------------3--------7-------------------|
--------------------------------------------------------|
--------------------------------------------------------|

                                                 h
-------------------3-------5--------5-6-5--------(5)----|
|-10--------6---------5--------5------------------------------------|
-------------------0------------------------------------|Gtr I
|--7--------3---------7----------------7------------7--------(7)----|
--------------------------------------------------------|
--------------------------------------------------------|


|-5-5-5-5-5-5-5-5-5-5-5-5-5-5-5-5----|
|--6-6-6-6-6-6-6-6-6-6-6-6-6-6-6-6---|
-------------------------|Gtr I
-------------------------|
-------------------------|
-------------------------|
Regards, Kantele


Текст, аккорды и табулатура для песни "Therein", исполняет "Dark Tranquillity".
Используемые в песне аккорды можно найти в разделе Как брать аккорды. Аккорды для шестиструнной гитары. Другие песни можно найти на нашем сайте, воспользовавшись алфавитным указателем вверху страницы.


 
Ошибка в тексте? Выделите ошибку и нажмите Ctrl+Enter