Tune to Eb (Eb, Ab, Db, Gb, Bb, Eb)


Riff A (0:00 - 0:15) 

--------------5-0-7-0-8-7-8-0-7-5-7-0-5--------5-------|
|-5-4-5-0-7-5-7-0-8-7-8-0---------------------------8-7-8----8-7-0-|
-------------------------------------------------------|
-------------------------------------------------------|
-------------------------------------------------------|
-------------------------------------------------------|
|                                                     
            |
-------------------------------------------------------|
-------------------------------------------------------|
-------------------------------------------------------|
--------------7---9--10-9-10--9-7-9---7----------------|
|-7-6-7---9-7-9--10-9-10---------------------------10-9-7-10-9-7-7-|
-------------------------------------------------------|


--------------5-0-7-0-8-7-8-0-7-5-7-0-5----------------|
|-5-4-5-0-7-5-7-0-8-7-8-0---------------------------8-7-8-5~-------|
-------------------------------------------------------|
-------------------------------------------------------|
-------------------------------------------------------|
-------------------------------------------------------|
|                                                     
            |
-------------------------------------------------------|
-------------------------------------------------------|
-------------------------------------------------------|
--------------7---9--10-9-10--9-7-9---7----------------|
|-7-6-7---9-7-9--10-9-10---------------------------10-9-10-7~------|
-------------------------------------------------------|

 
--------------5-0-7-0-8-7-8-0-7-5-7-0-5--------5-------|
|-5-4-5-0-7-5-7-0-8-7-8-0---------------------------8-7-8----8-7-0-|
-------------------------------------------------------|
-------------------------------------------------------|
-------------------------------------------------------|
-------------------------------------------------------|
|                                                     
            |
-------------------------------------------------------|
-------------------------------------------------------|
-------------------------------------------------------|
--------------7-7-9-910101010-9-9-9-9-7----------------|
|-7-7-7-7-9-9-9-910101010--------------------------10-9-10-7-------|
-------------------------------------------------------|


--------------5-0-7-0-8-7-8-0-7-5-7-0-5----------------|
|-5-4-5-0-7-5-7-0-8-7-8-0---------------------------8-7-8-5~-------|
-------------------------------------------------------|
-------------------------------------------------------|
-------------------------------------------------------|
-------------------------------------------------------|
|                                                     
            |
-------------------------------------------------------|
-------------------------------------------------------|
-------------------------------------------------------|
--------------7-7-9-910101010-9-9-9-9-7----------------|
|-7-7-7-7-9-9-9-910101010--------------------------10-9-10-7~------|
-------------------------------------------------------|



Riff B (0:31 - 0:49)
GTR 2
-------------------------------------------------------|
-------------------------------------------------------|
-------------------------------------------------------|
|---------7-7-------------7-7-------------7-7---------h-p----------|
|-5-5-8-8-----8-8-5-5-7-7-----7-7-4-4-7-7-----7-7-8--7-8-7---------|
-----------------------------------------------10-9~---|

----------------------------------------------------------|
------------------------------------------------h-p-------|
|-----7---10---7---8--7--5-/-7-7~--------7---10---7----10-7-8-7------|
|-0-8---8----8---8--------------------0-8---8----8---8-----------10-8-|
----------------------------------------------------------|
----------------------------------------------------------|

----------------------------------------------------------|
----------------------------------------------------------|
----------------------------------------------------------|
|-----7---10---7---8--7--5-/-7-7~--------------------5/7-7~---775----|
|-0-8---8----8---8--------------------8-8-8-8-8-8-8-8-------------875-|
----------------------------------------------------------|


-------------------------------------------------------|
-------------------------------------------------------|
------------------------------------------h-p----------|
|---------7-7-------------7-7-------------7-7-----7--5-7-5---------|
|-5-5-8-8-----8-8-5-5-7-7-----7-7-4-4-7-7-----7-7----------8-7~----|
-------------------------------------------------------|

-----------------------------------------|
-----------------------------------------|
-----------------------------------------|
|---------7-7-------------7-7------------------------|
 
|-5-5-8-8-----8-8-5-5-7-7-----7-7--------------------|
                   
-----------------------------------------|

-----------------------------------------|
-----------------------------------------|
-------------------------------------5~--|
|-7-7-5-5-----------------------------8-7~--8~-------|
|---------8-8-7-7-8-7-8-7-5-5-4-4-5~-----------------|
-----------------------------------------|


Riff C (0:49 - 0:57)

|-12----12----12----12----12-13-12-10-------------------10----10-13-12-10-|
|----10----10----10----10-------------13----13----13----------------------|
-----------------------------10----10----10----12-------------|
--------------------------------------------------------------|
--------------------------------------------------------------|
--------------------------------------------------------------|


Riff D (1:22 - 1:30)

---17----------------------17-----------|
|-----18-17-18----18-17-18----18-17-18----18-17-18--|
|--19----------------------19-----------------------|
----------------------------------------|
----------------------------------------|
----------------------------------------|
|                                                   |
----------------------------------------|
----------------------------------------|
----------------------------------------|
|---7-----------------------9-/-10--9-/-10---------|
|---5-----------------------7-/--8--7-/--8---------|
----------------------------------------|


---17----------------------17-----------|
|-----18-17-18----18-17-18----18-17-18----20-18-17--|
|--17----------------------17-----------------------|
----------------------------------------|
----------------------------------------|
----------------------------------------|
|                                                   |
----------------------------------------|
----------------------------------------|
----------------------------------------|
----------------9-/-10--9-/-10---------|
|--10-----------------7-----7-/--8--7-/--8---------|
|---8-----------------5-----------------------------|


---17----------------------17-----------|
|-----18-17-18----18-17-18----18-17-18----18-17-18--|
|--19----------------------19-----------------------|
----------------------------------------|
----------------------------------------|
----------------------------------------|
|                                                   |
----------------------------------------|
----------------------------------------|
----------------------------------------|
|---7-----------------------------------------------|
|---5-----------------------------------------------|
----------------------------------8-----|
|                                                   |
----------------------------------------|
----------------------------------------|
----------------------------------------|
----------------------------------------|
---------------------------------10-----|
----------------------------------------|


---17-----------------------------------|
|-----18-17-18----18-17-18-18~---17~----------------|
|--17-----------------------------------------------|
----------------------------------------|
----------------------------------------|
----------------------------------------|
|                                                   |
----------------------------------------|
----------------------------------------|
----------------------------------------|
----------------------------------------|
|----~----~----~------------------------------------|
|---8-/-10---10-------------------------------------|
|                                                   |
----------------------------------------|
----------------------------------------|
----------------------------------------|
|----~----~----~pinch harmonic----------------------|
|--10-/-12---12-------------------------------------|
----------------------------------------|



Riff E (4:28 - 4:44)

--------------------------------------------------------------|
--------------------------------------------------------------|
|-/7-----7--7-----------------7--9----------------------------2-----/-----|
---------------------------7----7--7--------------------------|
|-/5-----5--5-----------------5--7----------------------------0-----/-----|
---------------------------5----5--5--------------------------|
|                                                     
                   |
|--1-----------------------------------0----------------------------------|
|--3-----------------------------------1----------------------------------|
|--2-----------------------------------2----------------------------------|
|--0-----------------------------------2----------------------------------|
---------------------------0----------------------------------|
--------------------------------------------------------------|
|                                                     
                   |
|-17----------------17-------15-------12----------------13-------12-------|
|----18-17-15-17-18----18-17----17-18----13-12-10-12-13----13-12----10-12-|
--------------------------------------------------------------|
|-piano arranged for
guitar-----------------------------------------------|
--------------------------------------------------------------|
--------------------------------------------------------------|



--------------------------------------------------------------|
--------------------------------------------------------------|
|-/7--------7---------------------------------14--------------------------|
|--------7-----------7---------------------14--------------14--------14---|
|-/5--------------------5-------------12----------------------------------|
--------------------------------------------------------------|
|                                                     
                   |
|--1-----------------------------------0----------------------------------|
|--3-----------------------------------1----------------------------------|
|--2-----------------------------------2----------------------------------|
|--0-----------------------------------2----------------------------------|
---------------------------0----------------------------------|
--------------------------------------------------------------|
|                                                     
                   |
|-17----------------17-------15-------12----------------13-------12-------|
|----18-17-15-17-18----18-17----17-18----13-12-10-12-13----13-12----10-12-|
--------------------------------------------------------------|
--------------------------------------------------------------|
--------------------------------------------------------------|
--------------------------------------------------------------|


---------|
---------|
---------|
|-12---121212121212--|
---------|
---------|
|                    |
|--1----1-1-1-1-1-1--|
|--3----3-3-3-3-3-3--|
|--2----2-2-2-2-2-2--|
|--0----0-0-0-0-0-0--|
---------|
---------|


Текст, аккорды и табулатура для песни "Punish My Heaven", исполняет "Dark Tranquillity".
Используемые в песне аккорды можно найти в разделе Как брать аккорды. Аккорды для шестиструнной гитары. Другие песни можно найти на нашем сайте, воспользовавшись алфавитным указателем вверху страницы.


 
Ошибка в тексте? Выделите ошибку и нажмите Ctrl+Enter