Tuning C#

Intro Only:

Riff A
-------------------------------------------------------------|
|------1-------0-------1-------0-----------------0-------1----------1----|
--------------------------------------------------------2----|
|----2---2---2---2---2---2---2---2------3------0---0---2---2--3-2-2-2----|
|--0-------0-------0-------0----------3---3----------0--------3-2-2-0----|
------------------------1-------/3----------------1-0-0------|

Riff B
-------------------------------------------------------------|
|------1-------0-------1-------0-----------------0-------1----------1----|
--------------------------------------------------------2----|
|----2---2---2---2---2---2---2---2------3------0---0---2---2--3-2-2-2----|
|--0-------0-------0-------0----------3---3----------0--------3-2-2-0----|
------------------------1-------/3----------------1-0-0------|

Riff C
-----------------------------------------------------0-------|
|------1-------0-------1-------0-----------------0-------1---------1-----|
-------------------------------------------------------------|
|----2---2---2---2---2---2---2---2------3------0---0---2---2---2---------|
|--0-------0-------0-------0----------3---3----------0-------0-----------|
------------------------1-------/3---------------------------|

Riff D
------------------------------------------------------|
|--1-1-----1-1-----1-1-----1-1------------------------------------|
|--2-2-----2-2-----2-2-----2-2------------------------------------|
|--2-2-----2-2-----2-2-----2-2-----2-2-----2-2--------------------|
|--0-0-0-0-0-0-0-0-0-0-0-0-0-0-0-0-2-2-----2-2---------0-2-3-2-3--|
|------.-.-----.-.-----.-.-----.-.-0-0-0-0-0-0-0-0-0-0------------|
                                       . .     . . .

------------------------------------------------------|
|--1-1-----1-1-----1-1-----1-1------------------------------------|
|--2-2-----2-2-----2-2-----2-2------------------------------------|
|--2-2-----2-2-----2-2-----2-2-----2-2-----2-2-------------2---2--|
|--0-0-0-0-0-0-0-0-0-0-0-0-0-0-0-0-2-2-----2-2-------2-3-5---5----|
|------.-.-----.-.-----.-.-----.-.-0-0-0-0-0-0-0-0-0--------------|
                                       . .     . . .


Riff E
--------------------------------------------------------------|
--------------------------------------------------------------|
|-------2-4-5-------------------------------------------------------------|
|--2~---2-4-5-3-2---------------------------------------------------------|
|-------0-2-3-3-2---------------------------------------------------------|
--1-0---------------------------------------------------------|

Regards, Kantele


Текст, аккорды и табулатура для песни "Hedon", исполняет "Dark Tranquillity".
Используемые в песне аккорды можно найти в разделе Как брать аккорды. Аккорды для шестиструнной гитары. Другие песни можно найти на нашем сайте, воспользовавшись алфавитным указателем вверху страницы.


 
Ошибка в тексте? Выделите ошибку и нажмите Ctrl+Enter