'Across the Vacuum' by Darkthrone
  			transcribed by Knut Farstad
			Song from the album 'Ravishing Grimness'

Downloaded exclusively from:
The Black Death... Black & Death Metal Page
http://theblackdeath.cjb.net

 Straight EADGBe tuning
	Do not *always* be guided by the pattern of strumming in this tab.
        Listen to the song. I have not listed any structure of the rhy. 
        figures or riffs in the end of the tab or elsewhere. For each named
        figure, I have written the time of it's first occurance. The riffs
        and other figures that have no name, are identified in time only -
        these occur only once. 800x600. Be fine, and stay atheistic -
        have fun with the song.
				- Knut Farstad


|[0:00]		Rhy. Fig. 1
| - Displayed in Chords w/o strumming pattern
|-----------------------------------------------------------------------------
|-----------------------------------------------------------------------------
|---4-----4-----5--4-----2--------9--8---10--9--10--12--10--9------10--9--10--
|---4-----4--3--5--4--5--2--2-----7--6---10--9--10--10--10--9--10--10--9--10--
|---2--1--2--3--3--2--5--0--2-------------8--7---8-------8--7--10---8--7--8---
|------------1--------3-----0----------------------------------8--------------
                                                                              

------------------|
------------------|
--12--10--9-------|
--10--10--9--12---|
-------8--7--12---|
-------------10---|
End of rhy. Fig. 1
                                                                              
|[01:32]
|-----------------------------------------------------------------------------
|-----------------------------------------------------------------------------
|--------------------------------------7-7-7-7-7-7-7-7------------------------
|--3-3-3-3-3-3-2-2-2-2-2-2-2-2--3-2-3--7-7-7-7-7-7-7-7--7-7-7-7-7-7-8-8-8-8---
|--3-3-3-3-3-3-2-2-2-2-2-2-2-2--3-2-3--5-5-5-5-5-5-5-5--7-7-7-7-7-7-8-8-8-8---
|-----------------------------------------------------------------------------
                                                                              

----------------------------|
----------------------------|
----------------------------|
---8-8-8-8--10-10-10-8-8-8--|
---8-8-8-8--10-10-10-8-8-8--|
----------------------------|
 
|[01:38]			Rhy. Fig. 2
|-----------------------------------------------------------------------------
|-----------------------------------------------------------------------------
|--7-7-7-7-7-7-7-7-------------------------------------7-7-7-7-7-7-7-7--------
|--7-7-7-7-7-7-7-7-3-3-3-3-3-3-2-2-2-2-2-2-2-2--3-2-3--7-7-7-7-7-7-7-7-7-7-7--
|--5-5-5-5-5-5-5-5-3-3-3-3-3-3-2-2-2-2-2-2-2-2--3-2-3--5-5-5-5-5-5-5-5-7-7-7--
|-----------------------------------------------------------------------------
                                                                              
------------------------------------------|
------------------------------------------|
------------------------------------------|
--7-7-7-8-8-8-8-8-8-8-8--10-10-10-8-8-8---|
--7-7-7-8-8-8-8-8-8-8-8--10-10-10-8-8-8---|
------------------------------------------|
							  End of rhy. Fig. 2

|[02:58]			Rhy. Fig. 3
|---------0---------0----------------------------------------0---------0------
|---------0---------0----------------------------------------0---------0------
|---------0---------0--6/7--7--7/10--10-109--9--9-----------0---------0------
|---------2---------2--6/7--7--7/10--10-109--9--9-----------2---------2------
|--2---------2---------4/5--5--5/8---8--8-7--7--7----2---------2-------------
|--0-0-0-----0-0-0------------------------------------0-0-0-----0-0-0---------
     . .       . .     											  . .       . .                            

--------------------------------|-r---|----------------------------------------
----------------------------10--|-e-b-|----------------------------------------
--6/7--7--7/10--10-109--9--9---|-p-a-|------9----98--8--8/9--9-----9----98--
--6/7--7--7/10--10-109--9--7---|-e-r-|------7----76--6--6/7--7-----7----76--
--4/5--5--5/8---8--8-7--7------|-a---|---2-----------------------2------------
--------------------------------|-t---|---0-----------------------0------------
                                                                              

----------------------------------------------------------|
----------------------------------------------------------|
--9--12-----9----98--8--8/9--9-----9-----98--8--87--7--|
--7--10-----7----76--6--6/7--7-----7-----76--6--65--5--|
---------2-----------------------2------------------------|
---------0-----------------------0------------------------|
                                       End of rhy. Fig. 3  

|[04:16]			Rhy. Fig. 4
|-------------------------------------------------------|
|-------------------------------------------------------|
|-------------------------------------------------------|
|----------------------3-2-2-2-2-2-2-2-2-2-2-2-2-2-2-2--|
|--2-2-2-2-5-4-4-4-4-4-4-3-3-3-3-3-3-3-3-3-3-3-3-3-3-3--|
|--0-0-0-0-6-5-5-5-5-5----------------------------------|
 												  End of rhy. Fig. 4                                     

|[06:33]
|--------------------------------|
|--------------------------------|
|--7-------9-------9------9------|
|--7-------7-------9------9------|
|--5-------7-------7------7------|
|--------------------------------|
                                                                              
				blahblahblah,
					[email protected]


Текст, аккорды и табулатура для песни "Across The Vacuum", исполняет "Dark Throne".
Используемые в песне аккорды можно найти в разделе Как брать аккорды. Аккорды для шестиструнной гитары. Другие песни можно найти на нашем сайте, воспользовавшись алфавитным указателем вверху страницы.


 
Ошибка в тексте? Выделите ошибку и нажмите Ctrl+Enter