D5                   Bb5                 (2 times) 
E----------|---------|---------|---------| 
B----------|---------|---------|---------| 
G----------|---------|---------|---------| 
D--7-6---6-|-7-6---6-|---------|---------| 
A------8---|-----8---|-8-7---7-|-8-7---7-| 
E----------|---------|-----9---|-----9---| 


                                          (2 times) 
E----------|---------|---------|---------| 
B----------|---------|---------|---------| 
G----------|---------|---------|---------| 
D--6-------|-76-----|-3-------|-43-----| 
A--4-------|-54-----|-1-------|-21-----| 
E----------|---------|---------|---------| 



Rhy. Fig. 1 (Verse)                       (4 times) 
 D5         A5        Db5       G5 
E----------|---------|---------|---------| 
B----------|---------|---------|---------| 
G----------|---------|---------|---------| 
D--7-------|---------|-6-------|---------| 
A----8-7-8-|-7-------|---7-6-7-|---------| 
E----------|---8-7-8-|---------|-3---5-6-| 


                     (4 times) 
E---------|---------| 
B---------|---------| 
G---------|---------| 
D--7------|-3-------| 
A--5------|-1-------| 
E---------|---------| 


Rhy. Fig. 2 
 D5         Bb5       (4 times) 
E----------|---------| 
B----------|---------| 
G----------|---------| 
D----------|---------| 
A--5-8-7-8-|---------| 
E----------|-6-9-8-9-| 


Repeat Rhy. Fig. 1 (Verse) 4 times 


Rhy. Fig 3                                 
E----------|---------|---------|---------| 
B----------|---------|---------|---------| 
G----------|---------|---------|---------| 
D--7---8---|-7---10--|-7---8---|-7---10--| 
A--5---6---|-5---9---|-5---6---|-5---9---| 
E--5---6---|-5---9---|-5---6---|-5---9---| 


                                                         (4 times) 
E-------------------| 
B-------------------| 
G-------------------| 
D--7-----87/8-|-4-----54/5-|-7-----87/8-|-10----11-8-| 
A--5-----65/6-|-2-----32/3-|-5-----65/6-|-8-----9--6-| 
E-------------------| 


Repeat Rhy. Fig. 3 


Repeat Rhy. Fig. 2 (8 times) 

End 


Текст, аккорды и табулатура для песни "My Dark Desires", исполняет "Dark Funeral".
Используемые в песне аккорды можно найти в разделе Как брать аккорды. Аккорды для шестиструнной гитары. Другие песни можно найти на нашем сайте, воспользовавшись алфавитным указателем вверху страницы.


Слушать онлайн My Dark Desires


Dark FuneralMy Dark Desires на Яндекс.Музыке


 
Ошибка в тексте? Выделите ошибку и нажмите Ctrl+Enter