Good Morning

by The Dandy Warhols
from album 'The Dandy Warhols come down'

transcribed by Christian Reindel ([email protected])
any questions or corrections- e-mail me

Normal tuning 

Main riff - play clean at the beginning and than with distorsion

    G               Dm              Fm                C  
E:|-0-0-0-0-0-0-0-0-1-1-1-1-1-1-1-1-0-0-0-0-0-0-0-0-0-0-0-0-0-0-0-0-0--|
B:|-3-3-3-3-3-3-3-3-3-3-3-3-3-3-3-3-1-1-1-1-1-1-1-1-1-1-1-1-1-1-1-1-1--|
G:|-0-0-0-0-0-0-0-0-2-2-2-2-2-2-2-2-2-2-2-2-2-2-2-2-2-0-0-0-0-0-0-0-0--|
D:|-0-0-0-0-0-0-0-0-0-0-0-0-0-0-0-0-3-3-3-3-3-3-3-3-3-2-2-2-2-2-2-2-2--|
A:|-2-2-2-2-2-2-2-2-----------------3-3-3-3-3-3-3-3-3-3-3-3-3-3-3-3-3--|
E:|-3-3-3-3-3-3-3-3-----------------1-1-1-1-1-1-1-1-1------------------|
 
Interlude

    Good          Morning          Good              Morning
    G               Dm              Fm                G  
E:|-0-0-0-0-0-0-0-0-1-1-1-1-1-1-1-1-0-0-0-0-0-0-0-0-0-0-0-0-0-0-0-0-0--|
B:|-3-3-3-3-3-3-3-3-3-3-3-3-3-3-3-3-1-1-1-1-1-1-1-1-1-3-3-3-3-3-3-3-3--|
G:|-0-0-0-0-0-0-0-0-2-2-2-2-2-2-2-2-2-2-2-2-2-2-2-2-2-0-0-0-0-0-0-0-0--|
D:|-0-0-0-0-0-0-0-0-0-0-0-0-0-0-0-0-3-3-3-3-3-3-3-3-3-0-0-0-0-0-0-0-0--|
A:|-2-2-2-2-2-2-2-2-----------------3-3-3-3-3-3-3-3-3-2-2-2-2-2-2-2-2--|
E:|-3-3-3-3-3-3-3-3-----------------1-1-1-1-1-1-1-1-1-3-3-3-3-3-3-3-3--|

     Dm   Fm                 Dm   G                Dm   Fm
E:|--1-1--0-0-0-0-0-0-0-0-0--1-1--0-0-0-0-0-0-0-0--1-1--0-0-0-0-0-0-0-0-0--|
B:|--3-3--1-1-1-1-1-1-1-1-1--3-3--3-3-3-3-3-3-3-3--3-3--1-1-1-1-1-1-1-1-1--|
G:|--2-2--2-2-2-2-2-2-2-2-2--2-2--0-0-0-0-0-0-0-0--2-2--2-2-2-2-2-2-2-2-2--|
D:|--0-0--3-3-3-3-3-3-3-3-3--0-0--0-0-0-0-0-0-0-0--0-0--3-3-3-3-3-3-3-3-3--|
A:|-------3-3-3-3-3-3-3-3-3-------2-2-2-2-2-2-2-2-------3-3-3-3-3-3-3-3-3--|
E:|-------1-1-1-1-1-1-1-1-1-------3-3-3-3-3-3-3-3-------1-1-1-1-1-1-1-1-1--|
 
    G    end interlude ----> back to main riff
E:|-0-0-0-0-0-0-0-0-|
B:|-3-3-3-3-3-3-3-3-|
G:|-0-0-0-0-0-0-0-0-|
D:|-0-0-0-0-0-0-0-0-|
A:|-2-2-2-2-2-2-2-2-|
E:|-3-3-3-3-3-3-3-3-|

I don't give you a songstructure - you must listen at this beautiful song and then
you know where the interlude part is coming.

end.


Текст, аккорды и табулатура для песни "Good Morning", исполняет "Dandy Warhols".
Используемые в песне аккорды можно найти в разделе Как брать аккорды. Аккорды для шестиструнной гитары. Другие песни можно найти на нашем сайте, воспользовавшись алфавитным указателем вверху страницы.


 
Ошибка в тексте? Выделите ошибку и нажмите Ctrl+Enter