Artist: Dandy Warhols
Title: Every Day Should Be A Holiday


intro/verse riff:

     E                  E                  E
e ------------------|------------------|------------------|
B ------------------|------------------|------------------|
G ---9-9--9-9--10---|---9-9--9-9--10---|---9-9--9-9--10---|
D ---9-9--9-9---9---|---9-9--9-9---9---|---9-9--9-9---9---|
A ---7-7--7-7---7---|---7-7--7-7---7---|---7-7--7-7---7---|
E ------------------|------------------|------------------|

     E    F
e ----------------------|
B ----------------------|
G ---9-9-1010-10101010--|
D ---9-9-1010-10101010--|
A ---7-7--8-8--8-8-8-8--|
E ----------------------|


verse:

E
at the time I was getting paid
getting drunk and getting laid
I grabbed a phone, called you up to say
get a job, because I got it made

chorus:

           B D E
get a job
             B D E
baby lets go
       B   D  A
every day ay ay
Db?         B
should be a holiday


Текст, аккорды и табулатура для песни "Every Day Should Be A Holiday", исполняет "Dandy Warhols".
Используемые в песне аккорды можно найти в разделе Как брать аккорды. Аккорды для шестиструнной гитары. Другие песни можно найти на нашем сайте, воспользовавшись алфавитным указателем вверху страницы.


 
Ошибка в тексте? Выделите ошибку и нажмите Ctrl+Enter