Intro:/ G7 / A7 / H7 / D7 /

Потом такая фишка:
E------------------------------------||
B|-2-3-------------------------------------------||
G|-----3-4---------------------------------------||
D|---------4-5-----------------------------------||
A--5-6-------------------------------||
E------6-7---------------------------||

Gm                D7      
Мы вам честно сказать хотим,              
D7              Gm     F     B/B A Ab G/
На девчонок мы больше не глядим.       
G7                     C7      
Они всю жизнь нам разбивают сердца.         
F7                  B  Cm D7      
От них мучения нам без конца.        
Gm                D7
Сколько можно им песни петь,                
D7              Gm     F     B/B A Ab G/
Сколько можно капризы их терпеть.       
G7                       C7    
Быть под наркозом их пленительных глаз,           
F7                      B    Cm     D7 Em7 Cm7 Dm7 D7Em7Cm7Dm7        
И слышать каждый раз отказ,опять отка-a-a-a-a-a-a-a-a-a-a-a-a-з.               
ПРИПЕВ:                
Dm7        G                  A7     
А как без них прожить,а ну скажи,скажи.                 
           D7                G  Hmdim  G    
Без них,то,мы куда,да просто ни  ку    да.              
         C7   Cdim        G     E7      
Недаром все века их носят на руках,             
        A7            D7          G      
И нам опять придется руки подставлять.      
Потом такая фишка:
E------------------------------------||
B|-2-3-------------------------------------------||
G|-----3-4---------------------------------------||
D|---------4-5-----------------------------------||
A--5-6-------------------------------||
E------6-7---------------------------||

Мы вам честно сказать должны,         
Больше жизни девчонки нам нужны.      
Ну кто нам скажет,что приходит весна?         
Ну кто покоя нас лишит и сна?      
Кто разбудит в душе любовь,         
Кто заставит  в мечту поверить вновь?      
Кто поцелует нас,хотя б иногда,         
Кто с нами жизнь разделит раз и навсегда?                 
ПРИПЕВ.


Текст, аккорды и табулатура для песни "Честно говоря", исполняет "Цветы".
Используемые в песне аккорды можно найти в разделе Как брать аккорды. Аккорды для шестиструнной гитары. Другие песни можно найти на нашем сайте, воспользовавшись алфавитным указателем вверху страницы.


 
Ошибка в тексте? Выделите ошибку и нажмите Ctrl+Enter