Same deep water as you
by the Cure
from the fabulous dark 89'album 'disintegration'

transcribed by Christian Reindel([email protected])
any questions or corrections- e-mail me

please let me know if everything wrong - I love that song so much !!!


main riff /intro

      A         B         C             B
E---------------------------------------------------------------
B---------------------------------------------------------------
G---------------------------------------------------------------
D----7-7-7-7-7-9-9-9-9-9-10-10-10-10-10-9-9-9-9-9---------------
A---------------------------------------------------------------
E---------------------------------------------------------------
      
keyboards play 4 times
                                                                        
E---------------------------------------------------------------
B---------------------------------------------------------------
G-------9--7------9---------------------------------------------
D----7----------------5---7-------------------------------------
A---------------------------------------------------------------
E---------------------------------------------------------------
     

back to mainriff - verse 1

then main solo - play 4 times
                                                                         
E---------------------------------------------------------------
B---------------------------------------------------------------
G---9-----7------5--7-5----4-5--4-------------------------------
D-----10----9---------------------5--7--------------------------
A---------------------------------------------------------------
E---------------------------------------------------------------
       

back to mainriff - verse 2

then main solo - play 4 times


then goes to solo 1 -  play twice
                                                                       
E---------------------------------------------------------------
B---------------------------------------------------------------
G------------7-7-7--10-10-10-9----------------12-12-14-9--------
D-5-7----9-9---------------------10-10-9-9-9--------------------
A---------------------------------------------------------------
E---------------------------------------------------------------

                                                                              
E---------------------------------------------------------------
B---------------------------------------------------------------
G--9-9-9---9-7-7-5-5------5-5-5-5--4----------------------------
D--------------------7---------------5--5-7---------------------
A---------------------------------------------------------------
E---------------------------------------------------------------
 
back to mainriff - verse 3

then main solo  play 4 times

then play again solo 1 but only 1 1/2 time ( that mean's solo 1 is linked with solo 2)

                                                                             
last part of solo 1

E---------------------------------------------------------------
B---------------------------------------------------------------
G------------7-7-7--10-10-10-9----------------12-12-14-9--------
D-5-7----9-9----------------------10-10-9-9-9-------------------
A---------------------------------------------------------------
E---------------------------------------------------------------

solo 2 starts with this

E---------------------------------------------------------------
B----------------------------13-13-13-12-12---------------------
G--14-14-14-16--16--16--16-------------------9------------------
D---------------------------------------------------------------
A---------------------------------------------------------------
E---------------------------------------------------------------


E---------------------------------------------------------------
B---------------------------------------------------------------
G--9-9-7--------9-9-7-------9-7----9-7----9-7----9-7----9-7-----
D--------10-7--------10-7------10-----10-----10-----10-----10---
A---------------------------------------------------------------
E---------------------------------------------------------------

E---------------------------------------------------------------
B----------------------------13-13-13-12-12---------------------
G--14-14-14-16--16--16--16-------------------9------------------
D---------------------------------------------------------------
A---------------------------------------------------------------
E---------------------------------------------------------------

E---------------------------------------------------------------
B---------------------------------------------------------------
G--9-9-7---------------9-9-7------------9-9-7-------------------
D--------10-7----------------10-7-------------10-7--------------
A---------------------------------------------------------------
E---------------------------------------------------------------


back to main solo - play 4 times

after the mainsolo I play again solo 1 - 2 times ( robert plays only a few licks here)


fade out notes

E---------------------------------------------------------------
B---------------------------------------------------------------
G---------------------------------------------------------------
D---------7------------------------7----------------------------
A---------------------------------------------------------------
E---------------------------------------------------------------

end.


Текст, аккорды и табулатура для песни "Same Deep Water As You", исполняет "Cure".
Используемые в песне аккорды можно найти в разделе Как брать аккорды. Аккорды для шестиструнной гитары. Другие песни можно найти на нашем сайте, воспользовавшись алфавитным указателем вверху страницы.


 
Ошибка в тексте? Выделите ошибку и нажмите Ctrl+Enter