---------------------------
| OUT OF THIS WORLD         |
|                           |
| Bloodflowers (2000)       |
|                           |
| www.thetwilightgarden.com |
 ---------------------------

BASS

http://www.geocities.com/cure_dib/
Joshua Cross ([email protected])

as far as i know, i'm the first person to attempt a tab of
the bass for this song. i don't know if this is completely
accurate, but i know that it is very close.

PART 1

G -----------------------------------------|
D -----------------------------------------|
A -7--7--7--7-9-10-10--10-10-10---12-10-12-|
E -----------------------------------------|

G -----------------------------------------|
D -----------------------------------------|
A -7--7--7--7-9-10-10---10-10-10---9-7-9---|
E -----------------------------------------|

G ------------------------------------------

D ------------------------------------------|
A -7--7--7--7-9-10-10---10-10-/-14-14-14-14-|
E ------------------------------------------|


PART 2a
PART 2 is 2a once, 2b once

G --------------------------------|
D --------------------------------|
A -2--2--2---2-0--0-0-0-----0-----|     x2
E ---------3--------------2---3-2-|

G --------------------------------|
D --------------------------4-2-4-|
A -2--2--2---2-0--0-0-0-----------|
E ---------3----------------------|

PART 2b

G --------------------------------|
D --------------------------4-2-4-|
A -5--5--5-3--3-3--2-2-2----------|     x2
E --------------------------------|

G --------------------------------|
D --------------------------4-5-4-|
A -5--5--5-3--3-3--2-2-2----------|
E --------------------------------|

G -------------------------------------|
D -------------------------------------|
A -0--0--0-2--2-2--4-4-4-/-12-12-12-12-|
E -------------------------------------|

PART 3

G -------------------------------|
D ----------------------7--5--7--|
A -5--5--5---5-7-----------------|
E ---------7---------------------|

G -------------------------------|
D -------------------------------|
A -5--5--5---5-7-----------------|
E ---------7---------------------|

G -------------------------------|
D ----------------------7--5--7--|
A -5--5--5---5-7-----------------|
E ---------7---------------------|

G -------------------------------|
D ----------------------4--5--4--|
A -5--5--5---5-7-----------------|
E ---------7---------------------|


part 1  x1
part 2  x1
part 3  x3
part 2a X1
part 3  X2
part 2  X1
part 3  X3
part 2  X1
part 1  X1


Текст, аккорды и табулатура для песни "Out Of This World", исполняет "Cure".
Используемые в песне аккорды можно найти в разделе Как брать аккорды. Аккорды для шестиструнной гитары. Другие песни можно найти на нашем сайте, воспользовавшись алфавитным указателем вверху страницы.


 
Ошибка в тексте? Выделите ошибку и нажмите Ctrl+Enter