Artist: The Cure
Song: Fascination Street
Album: Dissentigration

tabbed by: Stellar Legs
e-mail: [email protected]

This has to be one of the greatest songs ever written. Anyway, you don't wanna
hear me go on about The Cure (because I can), so here's the tab:

Guitar 1
e----------19-----------19------------------19--------19--------------19--|
B----20-----------------20------------------20------------20--------------|
G-------------------------------------------------------------------------|
D-------------------------------------------------------------------------|
A-------------------------------------------------------------------------|
e-------------------------------------------------------------------------|
  Let notes ring. A lot of volume swells......

e---------------20----------------------------------------------12-------|
B---20-------------------20----------20-------------20--------------20---|
G------------------------------------------------------------------------|
D------------------------------------------------------------------------|
A------------------------------------------------------------------------|
e------------------------------------------------------------------------|

e--------12--------|
B------------20----|
G------------------|
D------------------|
A------------------|
e------------------|

Guitar 2 (comes in after all of the above)
e----8------------------------8--------------------------------------|
B--------10----------------------10----------------------------------|
G-------------8----------------------8-------------------------------|
D-----------------10--(10)--------------10--(10)-------10-----(10)---|
A--------------------------------------------------------------------|
e--------------------------------------------------------------------|

Both guitar parts are over dubbed by 2 more guitars, so that they can play these
parts. So now there's 4 guitars going on, but you can do it with 2....

Guitar 1
e---------------------------------------------------------------------------|
B---11--11-11-11--11-11-11--11-11-11--11-11-----11--11-11-11--11-13-13-13-11|
G---------------------------------------------------------------------------|
D---------------------------------------------------------------------------|
A---------------------------------------------------------------------------|
e---------------------------------------------------------------------------|

Guitar 2
e---------------------------------------------------------------------------|
B---------------------------------------------------------------------------|
G------------------8-----7---------------------------5--(5)-------------10--|
D-------------10------------8--------------------6------------------8-------|
A--------10--------------------8--(8)--(8)/6--6------------------8----------|
e---8-----------------------------------------------------------------------|

Guitar 1
e---11-13-11--15-13-11----13-11-15-13---11*-----------------11*-11*--11*--|
B----------------------15-------------------13--13-13-13-15---------------|
G-------------------------------------------------------------------------|
D-------------------------------------------------------------------------|
A-------------------------------------------------------------------------|
e-------------------------------------------------------------------------|

e--13-11--15-13-11-15--13-11*-15*---18--15-18-18--18-18-18-18--16-18-16-15--|
B---------------------------------------------------------------------------|
G---------------------------------------------------------------------------|
D---------------------------------------------------------------------------|
A---------------------------------------------------------------------------|
e---------------------------------------------------------------------------|

1st Verse

Guitars 1 and 2 repeat all of the above, while an over dubbed guitar does this.

e------------------------------------------------|
B---13---13---16---13---15*------13--(13)---13---|
G------------------------------------------------|  X 2
D------------------------------------------------|
A------------------------------------------------|
e------------------------------------------------|

e-------------16--------15-------13--(13)---------------15----16---|
B---13---13--------13--------13------------13/15---15------15------|
G------------------------------------------------------------------|
D------------------------------------------------------------------|
A------------------------------------------------------------------|
e------------------------------------------------------------------|

Guitars 1 and 2 come back in

Guitar 1
e-------------------------------------------------------------------|
b-------------------------------------------------------------------|
G----------------------5----7----8--------(8)---------5----7----8---|
D-------------------------------------------------------------------|
A-------------------------------------------------------------------|
e-------------------------------------------------------------------|

Guitar 2
e--8----------8------8---x--8--8--8--x--10--10--10-10-10----10-10---10-10--|
B--8----------8------8---x--8--8--8--x---8---8---8--8--8-----8--8----8--8--|
G--8----------8------8---x--8--8--8--x---8---8---8--8--8-----8--8----8--8--|
D--------------------------------------------------------------------------|
A--------------------------------------------------------------------------|
e--------------------------------------------------------------------------|

Guitar 1
e------------------------------------------------------|
B------------------------------------------------------|
G--8--------5----7-----8------------(8)----------------|
D------------------------------------------------------|
A------------------------------------------------------|
e------------------------------------------------------|

Guitar 2
e---8-------8------8---x--8--8--8--8--8--8/10-10--10--10-10---11--11--11--|
B---9-------9------9---x--9--9--9--9--9--9/11-11--11--11-11---11--11--11--|
G---8-------8------8---x--8--8--8--8--8--8/10-10--10--10-10---10--10--10--|
D-------------------------------------------------------------------------|
A-------------------------------------------------------------------------|
e-------------------------------------------------------------------------|

Everything pretty much repeats itself.

Outro

Guitar 1
e----------------------------------------|
B--11---11-11-11--11-11-11---11-9-9-9-8--|
G----------------------------------------|  X 4
D----------------------------------------|
A----------------------------------------|
e----------------------------------------|

Guitar 2
e---8-------8----8---x--10-10--10--10--|
B---8-------8----8---x---8--8---8---8--|
G---8-------8----8---x---8--8---8---8--| X 4
D--------------------------------------|
A--------------------------------------|
e--------------------------------------|

Guitar 1 ends on:
e--------|
B---11~--|
G--------|
D--------|
A--------|
e--------|

Guitar 2 ends on:
e---11~--|
B---11~--|
G----9~--|
D--------|
A--------|
e--------|

Fin.

Vote Stellar........


Текст, аккорды и табулатура для песни "Fascination Street", исполняет "Cure".
Используемые в песне аккорды можно найти в разделе Как брать аккорды. Аккорды для шестиструнной гитары. Другие песни можно найти на нашем сайте, воспользовавшись алфавитным указателем вверху страницы.


 
Ошибка в тексте? Выделите ошибку и нажмите Ctrl+Enter