Sheryl Crow/ A change would do you good.
Tabbed by Jeremy Bowen [email protected]A Change would do you good ”  By Sheryl Crow
Transcribed by Jeremy Bowen ([email protected])

e----x---x---x---x----x---x---x----x---x----
b----x---x---x---x----x---x---x----x---x----
g---10--10---8--10--10---8--10---8---5-----  Repeat
d---10--10---8--10--10---8--10---8---5-----
a----8---8---6---8----8---6---8----6---3-----
e----8---8---6---8----8---6---8----6---3-----

Pre-Chorus (If you will…):  Palm muted    
e----x------------x---x---------x---x---x-/--x--
b----x------------x---x---------x---x---x-/--x--
g----3------------3---3---------3---3---3-/--5--
d----3------------3---3---------3---3---3-/--5--
a----1------------1---1---------1---1---1-/--3--
e----1------------1---1---------1---1---1-/--3--
Repeat beginning immediately after Pre-Chorus
e----x---x---x---x---x---x---------------------
b----x---x---x---x---x---x---------------------
g----8---7---5---7---3---5---------------------
d----8---7---5---7---3---5---------------------
a----6---5---3---5---1---3---------------------
e----6---5---3---5---1---3---------------------
Repeat beginning once again.
“Solo”:
e---------------------------------------------------
b---------------------------------------------------
g----/-8--10--10--10—10/12p8---------------
d---------------------------------------------------
a---------------------------------------------------
e---------------------------------------------------

e----------------------------------------------------
b----------------------------------------------------
g--10--10--10--10/12--8--5---------------------
d----------------------------------------------------
a----------------------------------------------------
e----------------------------------------------------

e----------------------------------------------------
b--11--11--11--11/-9-9-9-9/-8-8-8h9----------
g----------------------------------------------------
d----------------------------------------------------
a----------------------------------------------------
e----------------------------------------------------



e----------------------------------------------------
b----------------------------------------------------
g--9/10--10--8--8—7h8p7--5-------------------
d----------------------------------------------------
a----------------------------------------------------
e----------------------------------------------------

e----------------------------------------------------
b----------------------------------------------------
g—9p8p6—x3----9/11--13--13--13-----------
d----------------------------------------------------
a----------------------------------------------------
e----------------------------------------------------

e----------------------------------------------------
b----------------------------------------------------
g--15--15--15--16--16--16--18--18--18-------
d----------------------------------------------------
a----------------------------------------------------
e----------------------------------------------------

e---------------------------------------------------
b---------------------------------------------------
g--10~ -h12b--8--/--13 ~ -- 16~ --18 ~ ~ ~--
d---------------------------------------------------
a---------------------------------------------------
e---------------------------------------------------

This is all I have for you, I do not have the 
strumming patterns on the part before the 
solo, but I believe if you are good you will 
figure it out.



 
:: Ultimate Guitar Archive :: 
http://www.ultimate-guitar.com 



Текст, аккорды и табулатура для песни "A Change Would Do You Good", исполняет "Crow Sheryl".
Используемые в песне аккорды можно найти в разделе Как брать аккорды. Аккорды для шестиструнной гитары. Другие песни можно найти на нашем сайте, воспользовавшись алфавитным указателем вверху страницы.


 
Ошибка в тексте? Выделите ошибку и нажмите Ctrl+Enter