Band:Cross Borns
Song:I know that pain exist
Album:Legend of the four rings

Tabbed by Adam Varga
All tune:EADGHE
^-1/2 bend
^^-full bend
/;-slide

Intro: (acoustic)
E1--------------------------------------------
H--0--2-3-5-8-7-5-/7-7---7-7-/8-5---3-2-3-/5--
G---------------------------------------------
D---------------------------------------------
A---------------------------------------------
E6--------------------------------------------

Riff1: (rhytm guitar)
E1--------------------------------------------
H---------------------------------------------
G---------------------------------------------
D----4-4-4--4-4---4--4--4--4--5-4-------------
A----2-2-2--2-2---2--2--2--2------------------
E6--------------------------------------------

E1--------------------------------------------
H---------------------------------------------
G---------------------------------------------
D----2-2-2--2-2---2--2--2--2--3-2-------------
A----0-0-0--0-0---0--0--0--0------------------
E6--------------------------------------------

Riff1/b: (solo guitar)
E1--------------------------------------------
H----4-6-7-9-11-/12-11-----------------------
G---------------------------------------------
D---------------------------------------------
A---------------------------------------------
E6--------------------------------------------

Chorus1:
E1--------------------------------------------
H---------------------------------------------
G---------------------------------------------
D---------------------------------------------
A----4---7---4---5---4---7---4---5------------
E6---2---5---2---3---2---5---2---3------------

Chorus2: (rhytm guitar)
E1--------------------------------------------
H---------------------------------------------
G---------------------------------------------
D---------------------------------------------
A----7---10---5---3---2-----------------------
E6---5----8---3---1---0-----------------------

Chorus2: (Solo guitar)
E1-------------------------------------------------------------------
H-----------------------------5------------------5-------------------
G----4--4-6-7-6-6-/7-6---6-7---7-6-4--4-6-7-6-7----7-6-9-6---6-7-9-6
D-----------------------7--------------------------------------------
A--------------------------------------------------------------------
E6-------------------------------------------------------------------

Interlude: (acoustic)
E1---15-13-11-10-8-10-10---------------------------------------------
H-------------------------5-3-2-3-0---2-3-5-7-5-/7-5--3-2-3-5-------
G--------------------------------------------------------------------
D--------------------------------------------------------------------
A--------------------------------------------------------------------
E6-------------------------------------------------------------------

E1---15-13-11-10-8-10-10---------------------------------------------
H-------------------------5-3-2-3-0---2-3-5-7-5-/7-5----------------
G--------------------------------------------------------------------
D--------------------------------------------------------------------
A--------------------------------------------------------------------
E6-------------------------------------------------------------------


E1-------------------------------------------------------------------
H----5/7-7--7/8-8--8/10-10--10/12-12--12/14-14-14--------------------
G--------------------------------------------------------------------
D--------------------------------------------------------------------
A--------------------------------------------------------------------
E6-------------------------------------------------------------------

Solo: (under the solo played Riff1 Rhytm)
E1---9^--9-------------------------------------------------------------
H-----------7---0--2-3-5-3-2/32-2--2222-3-2222-5-2222-3-2222-5-2222-3-2222-2 
G-----------------------------------------------------------------------
D-----------------------------------------------------------------------
A-----------------------------------------------------------------------
E6----------------------------------------------------------------------


E1---14^--14-------7-9-10-12-14-14-15--14-12-10--7/97/5--5/75------
H-------------12-----------------------------------------------------
G--------------------------------------------------------------------
D--------------------------------------------------------------------
A--------------------------------------------------------------------
E6-------------------------------------------------------------------

Solo part two: (under this part played Chorus2 rhytm)
E1-------------------------------------------------------------------
H-----------------------------5------------------5-------------------
G----4--4-6-7-6-6-/7-6---6-7---7-6-4--4-6-7-6-7----7-6-9-6---6-7-9-6
D-----------------------7--------------------------------------------
A--------------------------------------------------------------------
E6-------------------------------------------------------------------

E1-------------------------------------------------------------------
H------------------------------555-----------------------------------
G----444-666-77-------666-77-------777-66--4-6-7-6--4-6-7-6----------
D-----------------777------------------------------------------------
A--------------------------------------------------------------------
E6-------------------------------------------------------------------

E1-------------------------------------------------------------------
H-----------------555------------------------------------------------
G----444-666-77-------777-66---4-6-7-9-7-6-7-6--4-6-7-6--4-6-7-6-----
D--------------------------------------------------------------------
A--------------------------------------------------------------------
E6-------------------------------------------------------------------


Текст, аккорды и табулатура для песни "I Know That Pain Exist", исполняет "Cross Borns".
Используемые в песне аккорды можно найти в разделе Как брать аккорды. Аккорды для шестиструнной гитары. Другие песни можно найти на нашем сайте, воспользовавшись алфавитным указателем вверху страницы.


 
Ошибка в тексте? Выделите ошибку и нажмите Ctrl+Enter