Gollam
Intro
E-------------------------------------------
H-------------------------------------------
G-------------------------------------------
D------------------------6-6-6-6-6--6-------
A--5---5-5---5-5---5-5---4-4-4-4-4--4-------
E--3---3-3---3-3---3-3----------------------

Riff1
E------------------------------------------------------
H------------------------------------------------------
G------------------------------------------------------
D------------------------------------------------------
A-----5-----5-----5----5-----5---5---4-----4-----4~----
E---3---3-3---3-3---3----3-3---3---3---3-3---3-3-------

Riff2
E---------------------------------------
H---------------------------------------
G---------------------------------------
D---5----6----8----6--------------------
A---3----3----6----6--------------------
E---------------------------------------

Riff3
E----------------------------------------------------------------
H----------------------------------------------------------------
G----------------------------------------------------------------
D----------------------------------------------------------------
A-----5-4-3-5-4-3-5----5-4-3-5-4-3-5----5-4-3-5-4-3-5----5-4-4~--
E---3----------------3----------------3----------------3---------

Refr
E---------------------------------------
H---------------------------------------
G---------------------------------------
D-----------5---3-----------------------
A---3---5---3---1-----------------------
E---1---3-------------------------------

Szуlу1

E--17-16-17-19-19--17-16-17-19-19--17-16-17-16------
H----------------------------------------------17---
G---------------------------------------------------
D---------------------------------------------------
A---------------------------------------------------
E---------------------------------------------------

Riff4
E---------------------------------------
H---------------------------------------
G---------------------------------------
D------5------------5-------------5-----
A---6--3--5--3---6--3--5----x2----3-----
E---4-----3--1---4-----3----------------

Riff5
E---------------------------------------
H---------------------------------------
G---------------------------------------
D---5--8--------------------------------
A---3--6--8--5--------------------------
E---------6--3--------------------------

Szolo2

E---------------10/11-11--10-10--7-----------------------------------------
H---8------------------------------8--6-6/8-8--6-4--6/8-8--6-4--3-4-6--4-3-
G------5-3/5-5-------------------------------------------------------------
D--------------------------------------------------------------------------
A--------------------------------------------------------------------------
E--------------------------------------------------------------------------

E---------------------------------------------------------------------10~--
H------8~-------8~--------------6-8-8~---8/9-9-8-6-4-3/4-4/6-6--4-3--------
G-------------------------5-7-8--------------------------------------------
D-------------------6-7-8--------------------------------------------------
A--10------10--------------------------------------------------------------
E--8--------8--------------------------------------------------------------


Текст, аккорды и табулатура для песни "Gollam Dala", исполняет "Cross Borns".
Используемые в песне аккорды можно найти в разделе Как брать аккорды. Аккорды для шестиструнной гитары. Другие песни можно найти на нашем сайте, воспользовавшись алфавитным указателем вверху страницы.


 
Ошибка в тексте? Выделите ошибку и нажмите Ctrl+Enter