Song:Ohio
Band:Crosby, Stills, Nash, and Young
Album:So Far

	I hate Crosby, Stills, Nash and Young. This song is definetly their
best material. All there other songs suck.

	I think this song sounds most like the recording when you use a gain
distortion or best an overdrive pedal or controller you turn it up about mid
way.

Famous Riff, Intro/Verse

  D         F   G    D         F   G
e------------------|------------------|
B-------3-----1---1|-------3-----1----|
G---0h2---2-0------|---0h2---2-0------|
D-0----------------|-0----------------|
A---------------3--|------------------|
E------------------|---------------3--|

Chorus

Strum Freely
  G              C
e-3------------|-0----------|
B-3------------|-1----------|
G-0------------|-0----------|
D-0------------|-2----------|
A-2------------|-3----------|
E-3------------|------------|

After that solo in G.

Verse

Tin soldiers and Nixon's coming
We're finally on our own
This summer I hear the drumming
Four dead in Ohio

Chorus

Gonna get down to it soldiers are cutting us down
Should have been down long ago
What if you knew her and found her dead on the ground
How can you run when you know.
Gonna get down to it soldiers are cutting us down
Should have been down long ago
What if you knew her and found her dead on the ground
How can you run when you know.


Текст, аккорды и табулатура для песни "Ohio", исполняет "Crosby Stills Nash And Young".
Используемые в песне аккорды можно найти в разделе Как брать аккорды. Аккорды для шестиструнной гитары. Другие песни можно найти на нашем сайте, воспользовавшись алфавитным указателем вверху страницы.


 
Ошибка в тексте? Выделите ошибку и нажмите Ctrl+Enter