Crosby, Stills, Nash, and Young
Into the Darkness

Intro

e-|---------------------------------|
B-|---------------------------------|
G-|---------------------------------|
D-|-------------10~-----10----------|
A-|---------------------------------|
E-|-10-10-10-10-----10~----10-10~---|

--play around with that, I'm not completely sure its is accurate.  

Verse ~Guitar One~ (slight distortion and heavy reverb)

e-|---------------------------------|
B-|---------------------------------|
G-|---------------------------------|
D-|---------------------------------|
A-|----------8~------------8/10~-8~-|
E-|-10-8-10-------10-8-10-----------|

e-|---------------------------------|
B-|---------------------------------|
G-|---------------------------------|
D-|---------------------------------|
A-|----------3~-------------3/5~-3~-|
E-|-5--3--5—------5--3--5-----------|

--I'm more then sure these are correct... you could also use this riff
for the bass guitar if you play well enough together

Verse ~Guitar Two~ (medium distortion and heavy reverb)

e-|---------------------------------|
B-|---------------------------------|
G-|---------------------------------|
D-|-7--7--7--10---7--7--7--12~-10~--|
A-|-7--7--7--10---7--7--7--12~-10~--|
E-|-5--5--5--8~---5--5--5--10~-8~~--|

e-|---------------------------------|
B-|---------------------------------|
G-|---------------------------------|
D-|-5--5--5--8~---5--5--5--10~-8~~--|
A-|-5--5--5--8~---5--5--5--10~-8~~--|
E-|-3--3--3--6~---3--3--3--8-~-6~~--|

--this just sounds good as guitar two... I'm not positive that these are the
actual notes they're playing in the background.  


Chorus ~Guitar Two~ (medium distortion and heavy reverb)

     ...in-to the dark-ness
e-|---------------------------------|
B-|---------------------------------|
G-|---------------------------------|
D-|---------------------------------|
A-|---------------------------------|
E-|---8/10-10-10--8---10~~----------|

(Guitar One- remains the same)

--once again, you may need to play around with the strings a little...
I'm not completely sure this is accurate.  

Bridge

~The chords used for the bridge are a little different from the normal way you're
used to playing them.  First of all, the D and C are both played on the E string
to give it a slightly deeper sound.  ...and the G is played on a totally
different octive.~

Chords Used for the Bridge:

      D    C    F    G
e-|-----------------------|
B-|-----------------------|
G-|-------------10--------|
D-|---12---10---10---17---|
A-|---12---10---8----17---|
E-|---10---8---------15---|

D                          C
I see you come home at the end of the day
F                     G
And was it worth it?  No one can say
D                          C
I see your face has turned ghostly pale
F                      G
Into the sunset we are watching you sail

(then do Verse Three and repeat chorus with Chorus Two's lyrics)

Ending?  ...uh... make up your own 
Lyrics

Verse One

Into the darkness
Soon you'll be sinking
What are you doing?
What can you be thinking?
All of your friends
Have been trying to warn you
That some of your demons
Are dying to drag you 

Chorus One

(Away)Into the darkness
Into the darkness yea

Verse Two

All of your life
Spent making your payments
Alone on the phone with
Your business arrangements
No one can know
Or ever get near you
YOU'RE SCREAMING TOO LOUD
But no one can hear you

Bridge

I see you come home at the end of the day
And was it worth it?  No one can say
I see your face has turned ghostly pale
Into the sunset we are watching you sail

Verse Three

Temperature's rising
Over the rainbow
Where are you hiding?
Afraid of your shadow...
We have been trying
Trying to find you
There's no use denying
Our love is behind you

Chorus Two

(Stay) out of the darkness
Out of the darkness yea


Текст, аккорды и табулатура для песни "Into The Darkness", исполняет "Crosby Stills Nash And Young".
Используемые в песне аккорды можно найти в разделе Как брать аккорды. Аккорды для шестиструнной гитары. Другие песни можно найти на нашем сайте, воспользовавшись алфавитным указателем вверху страницы.


 
Ошибка в тексте? Выделите ошибку и нажмите Ctrl+Enter