Crosby, Stills, Nash & Young - Helplessly Hoping

transc.Mike Chapman    [email protected]
  or, before July 1997 [email protected]

Add this to the chord version of the song. I love this song
and spent a couple hours on tabbing out the intro and the
exposed part at the end of the chorus. I'd love to get a
copy w/o voice so I could tab the whole song...

INTRO
   AM7                             C
e|---------0--------------1-----|-----------------------------|
B|-1-------------0h1------------|-1-------1-----1-------1-----|
G|-----0-------0------0-------0-|-----0-------0-----0-------0-|
D|---2-------2------2-------2---|---2-------0-----2-------0---|
A|-0-----0-------0------0-------|-3-------------3-------------|
E|------------------------------|-------3-------------3-------|

   G                             D
e|---------1-------------1-----|----2-2---0----0h2-2-2---0----|
B|-0-------------0-------------|-3--3-3------3-3---3-3------3-|
G|-----0-------0-----0-------0-|----2-2------------2-2--------|
D|---0-^-----2-----0-^-----2---|-0------0------0-------0------|
A|-3---------------------------|------------------------------|
E|-------3-------3-----3-------|------------------------------|
       ^ under a note means pick it harder

end of 1st CHORUS
   C2(?)
e|-------------------------|---------------------|
B|-----1--1--1--1--1--1--1-|----0h1--0h1--0------|
G|-------------------------|-------------(0)-----|
D|---0------0-----0-----0--|----0h2--0h2--0------|
A|-3----3------3-----3-----|---------------------|
E|-------------------------|-3(let ring)-----3---|

end of 2nd CHORUS
   C2(?)
e|-------------------------|-------------------3-|
B|-----1--1--1--1--1--1--1-|----0h1--0h1--0------|
G|-------------------------|---------------------|
D|---0------0-----0-----0--|----0h2--0h2--0------|
A|-3----3------3-----3-----|-----------------5---|
E|-------------------------|-3(let ring)--3------|


Текст, аккорды и табулатура для песни "Helplessly Hoping", исполняет "Crosby Stills Nash And Young".
Используемые в песне аккорды можно найти в разделе Как брать аккорды. Аккорды для шестиструнной гитары. Другие песни можно найти на нашем сайте, воспользовавшись алфавитным указателем вверху страницы.


 
Ошибка в тексте? Выделите ошибку и нажмите Ctrl+Enter