Hi this is Mandorlatus!!! I'm really sure this my transcription of Wrong Way is
the best u can find in the net!!! I don't sign up the times u have to play the
singles pieces of tablature,but listening to the song u'll surely understand
immediately!! Have a look also to the spaces between the notes,they indicate
nearly in perfect way the lenght of notes!!!!

Good luck and TRIK E TRAK, FUR IL MADRAK!!!! 

The tuning is Drop D:    D A D G B E (low to hight)

Key:

p.m._ _ _	   - Palm Mute
/	  	   - slide up
	          - Slide down


Intro/Verse: Clean

Part A: 
E-|----------------------------------------------------------|
B-|----------------------------------------------------------| 
G-|----------------------------------------------------------|
D-|----------------------------------------------------0---0-|
A-|------6-6-5-5-----3-5-5-5-----8-8-5-5-----3-5-5-5---------|
D-|--0-0---------0-0---------0-0---------0-0---------3---1---|

Part B: 
E-|--------------------------------------------------------------------|
B-|--------------------------------------------------------------------| 
G-|--------------------------------------------------------------------|
D-|------------------------------0---0---0---0---0---0---0---0---0---0-|
A-|------6-6-5-5-------3-5-5-5-5---0---8---8---8---8---7---7---7---0---|
D-|--0-0---------0-0---------------------------------------------------|

E-|---------------------------------|
B-|-6--6--6--6-6-6----6--6--5-5-5-5-|
G-|-5--5--5--5-5-5----5--5--4-4-4-4-|
D-|-3--3--3--3-3-3-2--2--2--2-2-2-2-|
A-|-3--3--3--3-3-3-2--2--2--2-2-2-2-|
D-|-3--3--3--3-3-3-2--2--2--2-2-2-2-|

End of Intro/Verse


Chorus: Distorted

E-|---------------------------------------------------------------|
B-|-----------------------------------6--6--6--6-6-6-5--5--5-5-5--|
G-|-2--2-5--5-5-5-5-7--7--7-7-7--76--5--5--5--5-5-5-4--4--4-4-4--|
D-|-0--0-5--5-5-5-5-7--7--7-7-7--54--3--3--3--3-3-3-2--2--2-2-2--|
A-|-0--0-3--3-3-3-3-5--5--5-5-5--54--3--3--3--3-3-3-2--2--2-2-2--|
D-|-0--0------------5--5--5-5-5--54--3--3--3--3-3-3-2--2--2-2-2--|

E-|--------------------------------------|
B-|--------------------------------------|
G-|-2--2-5--5-5-5-5-7--7--7-7-7—-7-7-7-7-|
D-|-0--0-5--5-5-5-5-7--7--7-7-7--7-7-7-7-|
A-|-0--0-3--3-3-3-3-5--5--5-5-5--5-5-5-5-|
D-|-0--0------------5--5--5-5-5--5-5-5-5-|


Interlude: Distorted

Part C:
E-|-------------------------------------------------------------------|
B-|-------------------------------------------------------------------|
G-|-------------------------------------------------------------------|
D-|-------------------------------------------------------------------|
A-|--------5-5-5-------4-4-4-5-5-4-4----------------------------------|
D-|--0-0-0-------0-0-0---------------0-0-0-8-8-8-0-0-0-7-7-7-8-8-7-7--|
     p.m._ _ _ _ _ _ _ _ _ _ _ _ _ _ _ _ _ _ _ _ _ _ _ _ _ _ _ _ _ _ 


E-|-----------------------------------------------------------------|
B-|-----------------------------------------------------------------|
G-|-----------------------------------------------------------------|
D-|----------------------------------------8-8-8-------7-0-0-8-7-5--|
A-|--------5-5-5-------4-4-4-5-5-4-4-------8-8-8-------7-0-0-8-7-5--|
D-|--0-0-0-------0-0-0---------------0-0-0-8-8-8-0-0-0-7-0-0-8-7-5--|
     p.m._ _ _ _ _ _ _ _ _ _ _ _ _ _ _ _ _       _ _ _   _ _ 
   

Part D:
E-|-------------------------------------------------------------------|
B-|-------------------------------------------------------------------|
G-|-------------------------------------------------------------------|
D-|-0-0-0-12-12-12-0-0-0-11-11-11-12-12-11-11-0-0-0-8-8-8-0-0-0-7-7---|
A-|-0-0-0-12-12-12-0-0-0-11-11-11-12-12-11-11-0-0-0-8-8-8-0-0-0-7-7---|
D-|-0-0-0-12-12-12-0-0-0-11-11-11-12-12-11-11-0-0-0-8-8-8-0-0-0-7-7---|
    p.m._          _ _ _                      _ _ _       _ _ _

End of interlude


Bridge 1:

Part E:

|	Guitar 1
|	E-|-------6--------------------------0------|
|	B-|---------6---------------4----------3----|
|	G-|---8-------8------5-----------2----------|
|	D-|-----8----------5------3--------0--------|
|	A-|-6------------3--------------------------|
|	D-|---------------------1------0------------|
|
|	Guitar 2 distorted (play only first time only)
|	E-|-----------------------------------------|
|	B-|-----------------------------------------|
|	G-|-8---------------------------------------|
|	D-|-8---------------------------------------|
|	A-|-6---------------------------------------|
|	D-|-----------------------------------------|


Part F:

Guitar 1 clean

E-|--------6---------------------|
B-|----------6---------------43-|
G-|----8-------8------5----------|
D-|------8----------5------3-----|
A-|--6------------3--------------|
D-|----------------------1-------|

End of Bridge 1


Bridge 2: Distorted

Part G:

E-|----------------------|
B-|----------------------|
G-|--2-----5------7/87--|
D-|--0--1--5--0---x/xx--|
A-|--0--1--3--0---7/87--|
D-|--0--1-----0----------|


Part H:

E-|--------------------|
B-|--------------------|
G-|--2-----5-----------|
D-|--0--1--5--0--8-7-5-|
A-|--0--1--3--0--8-7-5-|
D-|--0--1-----0--8-7-5-|
                 p.m._

End of Bridge 2           


End on:

E-|---------|
B-|-5-------|
G-|-4-------|
D-|-2-------|
A-|-2-------|
D-|-2-------|


that's all!!! just enjoy!!!              diego


Текст, аккорды и табулатура для песни "Wrong Way", исполняет "Creed".
Используемые в песне аккорды можно найти в разделе Как брать аккорды. Аккорды для шестиструнной гитары. Другие песни можно найти на нашем сайте, воспользовавшись алфавитным указателем вверху страницы.


Слушать онлайн Wrong Way


CreedWrong Way на Яндекс.Музыке


 
Ошибка в тексте? Выделите ошибку и нажмите Ctrl+Enter