Intro (clean)


e |--------------------------------------------------------|
B |--------------------------------------------------------|
G |--------------------------------------------------------|
D |-----------0-0---------0-0-------------0-0------0-----0-|
A |-------6-6----------3-5------------8-8------------------|
E |---0-0-----------0-0-----------0-0-----------3-----1----|
     
      Played 4 times


Verse (clean)


e |--------------------------------------------------------|
B |--------------------------------------------------------|
G |--------------------------------------------------------|
D |-----------0-0---------0-0-------------0-0------0-----0-|
A |-------6-6----------3-5------------8-8------------------|
E |---0-0-----------0-0-----------0-0-----------3-----1----|

       Played 8 times


Then after 8 times play (clean) 


e |--------------------------------------------------------|
B |--------------------------------------------------------|
G |--------------------------------------------------------|
D |-----------0-0-----0-0--------0--0--0--0--0--0--0--0--0-|
A |-------6-6-----3-5-----------5--0--8--8--8--7--7--7--0--|
E |---0-0------0-0-----------------------------------------|

     Play one time


Rhy. Fig. 1 (clean)


e |--------------------------------------------------------|
B |---6--6--6--6--6--6--6--6-----6--6--5--5--5--5--5--5--5-|
G |---5--5--5--5--5--5--5--5-----5--5--4--4--4--4--4--4--4-|
D |---3--3--3--3--3--3--3--3--2--2--2--2--2--2--2--2--2--2-|
A |---3--3--3--3--3--3--3--3--2--2--2--2--2--2--2--2--2--2-|
E |---3--3--3--3--3--3--3--3--2--2--2--2--2--2--2--2--2--2-|

     Play one time


Verse (clean)

e |--------------------------------------------------------|
B |--------------------------------------------------------|
G |--------------------------------------------------------|
D |-----------0-0---------0-0-------------0-0------0-----0-|
A |-------6-6----------3-5------------8-8------------------|
E |---0-0-----------0-0-----------0-0-----------3-----1----|

     Play one time


Rhy. Fig. 1 (clean)


e |--------------------------------------------------------|
B |---6--6--6--6--6--6--6--6-----6--6--5--5--5--5--5--5--5-|
G |---5--5--5--5--5--5--5--5-----5--5--4--4--4--4--4--4--4-|
D |---3--3--3--3--3--3--3--3--2--2--2--2--2--2--2--2--2--2-|
A |---3--3--3--3--3--3--3--3--2--2--2--2--2--2--2--2--2--2-|
E |---3--3--3--3--3--3--3--3--2--2--2--2--2--2--2--2--2--2-|

     Play one time


Verse (clean)

e |--------------------------------------------------------|
B |--------------------------------------------------------|
G |--------------------------------------------------------|
D |-----------0-0---------0-0-------------0-0------0-----0-|
A |-------6-6----------3-5------------8-8------------------|
E |---0-0-----------0-0-----------0-0-----------3-----1----|

      Play 7 times

Then after 7 times play (clean) 


e |--------------------------------------------------------|
B |--------------------------------------------------------|
G |--------------------------------------------------------|
D |-----------0-0-----0-0--------0--0--0--0--0--0--0--0--0-|
A |-------6-6-----3-5-----------5--0--8--8--8--7--7--7--0--|
E |---0-0------0-0-----------------------------------------|

     Play one time



Rhy. Fig. 1 (clean)


e |--------------------------------------------------------|
B |---6--6--6--6--6--6--6--6-----6--6--5--5--5--5--5--5--5-|
G |---5--5--5--5--5--5--5--5-----5--5--4--4--4--4--4--4--4-|
D |---3--3--3--3--3--3--3--3--2--2--2--2--2--2--2--2--2--2-|
A |---3--3--3--3--3--3--3--3--2--2--2--2--2--2--2--2--2--2-|
E |---3--3--3--3--3--3--3--3--2--2--2--2--2--2--2--2--2--2-|

     Play one time

Chorus  (dist.)

e |--------------------------------------------------------|
B |-----------------------------------------------------7--|
G |-------------5-5-5-5-5-5-5-------7-7-7-7-7-7-7-7-----6--|
D |--0-0--------3-3-3-3-3-3-3-------7-7-7-7-7-7-7-7-----4--|
A |--0-0--------3-3-3-3-3-3-3-------5-5-5-5-5-5-5-5-----4--|
E |--0-0----------------------------5-5-5-5-5-5-5-5--0--4--|
                                                     ^
                                                    P.M

e |--------------------------------------------------------|
B |---6--6--6--6--6--6-----8--6--5--5--5--5--5--5--5--5--5-|
G |---5--5--5--5--5--5-----7--5--4--4--4--4--4--4--4--4--4-|
D |---3--3--3--3--3--3-----5--3--2--2--2--2--2--2--2--2--2-|
A |---3--3--3--3--3--3-----5--3--2--2--2--2--2--2--2--2--2-|
E |---3--3--3--3--3--3--0--5--3--2--2--2--2--2--2--2--2--2-|

e |--------------------------------------------------------|
B |-----------------------------------------------------7--|
G |-------------5-5-5-5-5-5-5-------7-7-7-7-7-7-7-7-----6--|
D |--0-0--------3-3-3-3-3-3-3-------7-7-7-7-7-7-7-7-----4--|
A |--0-0--------3-3-3-3-3-3-3-------5-5-5-5-5-5-5-5-----4--|
E |--0-0----------------------------5-5-5-5-5-5-5-5--0--4--|
                                                     ^
                                                    P.M

Rhy Fig 2  P.M THREW THE THIS PART (dist.)

PM|--------------------------------------------------------|

e |--------------------------------------------------------|
B |--------------------------------------------------------|
G |--------------------------------------------------------|
D |--------------------------------------------------------|
A |--------------------------------------------------------|
E |--0-0-0-12-12-12-0-0-0-11-11-11-12-12-11-11-------------|

PM|--------------------------------------------------------|

e |--------------------------------------------------------|
B |--------------------------------------------------------|
G |--------------------------------------------------------|
D |--------------------------------------------------------|
A |--------------------------------------------------------|
E |-0--0--0--8--8--8--0--0--0--7--7--7--8--8--8--7--7--8--8|

PM|--------------------------------------------------------|

e |--------------------------------------------------------|
B |--------------------------------------------------------|
G |--------------------------------------------------------|
D |--------------------------------------------------------|
A |--------------------------------------------------------|
E |--0-0-0-12-12-12-0-0-0-11-11-11-12-12-11-11-------------|

PM|-------------|       |---------| |------|       |-------|

e |--------------------------------------------------------|
B |--------------------------------------------------------|
G |--------------------------------------------------------|
D |--------------8--8--8-----------7--------8--7--5--------|
A |--------------8--8--8-----------7--------8--7--5--------|
E |-----0--0--0--8--8--8--0--0--0--7--0--0--8--7--5--------|
                                                  ^
                                            BEND 1/4 STEP
Bridge (dist.)

PM|--------------------------------------------------------|

e |--------------------------------------------------------|
B |--------------------------------------------------------|
G |--------------------------------------------------------|
D |--------------------------------------------------------|
A |--------------------------------------------------------|
E |--0-0-0-12-12-12-0-0-0-11-11-11-12-12-11-11-------------|

PM|--------------------------------------------------------|

e |--------------------------------------------------------|
B |--------------------------------------------------------|
G |--------------------------------------------------------|
D |--------------------------------------------------------|
A |--------------------------------------------------------|
E |-0--0--0--8--8--8--0--0--0--7--7--7--8--8--8--7--7--8--8|

PM|--------------------------------------------------------|

e |--------------------------------------------------------|
B |--------------------------------------------------------|
G |--------------------------------------------------------|
D |--------------------------------------------------------|
A |--------------------------------------------------------|
E |--0-0-0-12-12-12-0-0-0-11-11-11-12-12-11-11-------------|

PM|-------------|       |---------| |------|       |-------|

e |--------------------------------------------------------|
B |--------------------------------------------------------|
G |--------------------------------------------------------|
D |--------------8--8--8-----------7--------8--7--5--------|
A |--------------8--8--8-----------7--------8--7--5--------|
E |-----0--0--0--8--8--8--0--0--0--7--0--0--8--7--5--------|
                                                  ^
                                            BEND 1/4 STEP

PM|--------------------------------------------------------|

e |--------------------------------------------------------|
B |--------------------------------------------------------|
G |--------------------------------------------------------|
D |--------------------------------------------------------|
A |--------------------------------------------------------|
E |--0-0-0-12-12-12-0-0-0-11-11-11-12-12-11-11-------------|

PM|--------------------------------------------------------|

e |--------------------------------------------------------|
B |--------------------------------------------------------|
G |--------------------------------------------------------|
D |--------------------------------------------------------|
A |--------------------------------------------------------|
E |-0--0--0--8--8--8--0--0--0--7--7--7--8--8--8--7--7--8--8|

PM|--------------------------------------------------------|

e |--------------------------------------------------------|
B |--------------------------------------------------------|
G |--------------------------------------------------------|
D |--------------------------------------------------------|
A |--------------------------------------------------------|
E |--0-0-0-12-12-12-0-0-0-11-11-11-12-12-11-11-------------|

PM|-------|        |----|         

e |--------------------------------------------------------|
B |--------------------------------------------------------|
G |--------------------------------------------------------|
D |--0-0-0-12-12-12-0-0-0-11-11-11-12-12-11-11-------------|
A |--0-0-0-12-12-12-0-0-0-11-11-11-12-12-11-11-------------|
E |--0-0-0-12-12-12-0-0-0-11-11-11-12-12-11-11-------------|

PM|---------|        |------|

e |--------------------------------------------------------|
B |--------------------------------------------------------|
G |--------------------------------------------------------|
D |-0--0--0--8--8--8--0--0--0--7--7--7--8--8--8--7--7--8--8|
A |-0--0--0--8--8--8--0--0--0--7--7--7--8--8--8--7--7--8--8|
E |-0--0--0--8--8--8--0--0--0--7--7--7--8--8--8--7--7--8--8|

Then

e |--------6--------------------------|--------0-----------|
B |-------------6------------------4--|-------------3------|
G |----8------------8------5----------|----2---------------|
D |------8---------------5-------3----|------0-------------|
A |--6-----------------3--------------|--------------------|
E |----------------------------1------|--0-----------------|
      play two times

e |-------------0------|-------6---------------------------|
B |------------------3-|-------------6------------------4--|
G |----2---------------|----8------------8------5----------|
D |-------0------------|------8---------------5-------3----|
A |--------------------|--6-----------------3--------------|
E |--0-----------------|----------------------------1------|
      play two times

e |-----------------|-----------------|-----------------|
B |-----------------|-----------------|-----------------|
G |--------5-----7--|--------5-----7--|--------5-----7--|
D |--0--1--3--0--x--|--0--1--3--0--x--|--0--1--3--0--x--|
A |--0--1--3--0--5--|--0--1--3--0--5--|--0--1--3--0--5--|
E |--0--1-----0-----|--0--1-----0-----|--0--1-----0-----|
                 ^                 ^                 ^
                1/2               1/2               1/2
PM              |-------| 
e |---------------------|
B |---------------------|
G |--------5------------|
D |--0--1--3--0--8--7--5|
A |--0--1--3--0--8--7--5|
E |--0--1-----0--8--7--5|

Outro played four times

e |--------------------------------|
B |---6--6--6--6--6--6-----6--8--6-|
G |---5--5--5--5--5--5-----5--7--5-|
D |---3--3--3--3--3--3-----3--5--3-|
A |---3--3--3--3--3--3-----3--5--3-|
E |---3--3--3--3--3--3--0--3--5--3-|

e |----------------------------|
B |--5--5--5--5--5--5--5--5--5-|
G |--4--4--4--4--4--4--4--4--4-|
D |--2--2--2--2--2--2--2--2--2-|
A |--2--2--2--2--2--2--2--2--2-|
E |--2--2--2--2--2--2--2--2--2-|

e |----------------------------------|
B |-------------------------------7--|
G |----7---7---7---7---7---7---7--6--|
D |----7---7---7---7---7---7---7--4--|
A |----5---5---5---5---5---5---5--4--|
E |----5---5---5---5---5---5---5--4--|

Closing

e |-----|----------|
B |--6--|--5~~~~~--|
G |--5--|--4~~~~~--|
D |--3--|--2~~~~~--|
A |--3--|--2~~~~~--|
E |--3--|--2~~~~~--|
           ^
      let it ring


                      Wrong Way

What makes you touch?
what makes you feel?
What makes you stop and smell the roses in an open field?
What makes you unclean?

Yeah, yeah. Yeah, yeah, yeah, yeah.

Yeah, yeah. Yeah, yeah, yeah, yeah.

What makes you laught?
What makes you cry?
What makes our youth run from the thought that we might die?What makes you bleed?

Yeah, yeah. Yeah, yeah, yeah, yeah.

Yeah, yeah. Yeah, yeah, yeah, yeah.

Somebye told me the wrong way.
Yeah, yeah. Yeah, yeah, yeah, yeah.

Somebye told me the wrong way.

Ah.
yeah yeah

What if i died?
What did i give?
I hope it was an answer 
So you might live.

I hope i helped you live
I hope i helped you live
I hope i helped you live
I hope i helped you live

Live

Yeah, yeah. Yeah, yeah, yeah, yeah.
Somebody told me the wrong way.
Yeah, yeah. Yeah, yeah, yeah. 
Somebody told me the wrong way.
yeah, yeah. Yeah, yeah, yeah, yeah.


Текст, аккорды и табулатура для песни "Wrong Way", исполняет "Creed".
Используемые в песне аккорды можно найти в разделе Как брать аккорды. Аккорды для шестиструнной гитары. Другие песни можно найти на нашем сайте, воспользовавшись алфавитным указателем вверху страницы.


Слушать онлайн Wrong Way


CreedWrong Way на Яндекс.Музыке


 
Ошибка в тексте? Выделите ошибку и нажмите Ctrl+Enter