Creed, What If.
 Tabbed by Kiley Wood, [email protected]
  
Drop D Tuning:        M=Palm Mute
1)E   4)D             ~=Vibrato
2)B   5)A
3)G   6)D

Fingerstyle Intro
(Clean)  Moderately 102

E|-------------------------5-----------------3--------
B|--------------5------6-------6---------5-------5----
G|----------7-----------------------------------------
D|-----/7--------------0------------------------------
A|---------------------------------------0------------
D|----------------------------------------------------

E|----0----------------------0--------0---------------
B|3-------3--------------3--------2-------2-----------
G|------------0------0------------------------0-------
D|------------------------------------------------0---
A|0---------------0---------------0-------------------
D|----------------------------------------------------

E|------------------5---------------3-----------------
B|---------5----6-------6-------5-------5-------------
G|-----7----------------------------------------3-----
D|/7------------0-------------------------------------
A|--------------------------0---0---------0-----1-----
D|----------------------------------------------------

E|1-----------------------1--------0------------------
B|----3---------------3--------3-------3--------------
G|--------1-------1------------------------0-------0--
D|----------------------------------------------------
A|------------1----------------0---------------0------
D|----------------------------------------------------

E|----0--------0-----------------------0--------------
B|3--------2-------2---------------2-------3---------3
G|---------------------0-------0----------------------
D|----------------------------------------------------
A|---------0---------------0---------------1---------1
D|----------------------------------------------------

E|----------------------------------Sound-Effects-----B|3---------2h3---------5p3p2p0h2---------------------
G|----------------------------------------------------
D|----------------------------------------------------
A|0---------------------0-----------------------------
D|----------------------------------------------------
(Clean With Pick)
E|----------------------------------------------------
B|----------------------------------------------------
G|----------------------------------------------------
D|0----0--0------------------0-------0----0----0---0--
A|0----0--0-------0--3h5--0--1-------1----1----0---0--
D|0----0--0--3h5--0-------0--0----0--2----2----0---0--

E|----------------------------------------------------
B|----------------------------------------------------
G|-------------------0--------------------------------
D|0------------------0-------2----2----0----0--0------
A|0-------0--3h5--0--1-------1----1----0----0--0------
D|0--3h5--0-------0-------0------------0----0--0--3h5-

E|----------------------------------------------------
B|----------------------------------------------------
G|----------------------------------------------------
D|--------0--0-------0----0----0----0--0--------------
A|0--3h5--0--1-------1----1----0----0--0-------0--3h5-
D|0-------0--0----0--2----2----0----0--0--3h5--0------
(Dist.)
E|----------------------------------------------------
B|----------------------------------------------------
G|----------------------------------------------------
D|----------------------------------------------------
A|---------------------------3h5-----1----------------
D|0-(2.7)----0----0--0h3--5-------0-------0--2~~~~~~--
 (Harm. Pitch C)  M  M
E|----------------------------------------------------
B|----------------------------------------------------
G|----------------------------------------------------
D|0---------------------------------------------------
A|0------------------3h5-----1------------------------
D|0----0--0--3h5--0-------0-------0--2~~~~~~----------
       M  M       M       M       M
E|----------------------------------------------------
B|----------------------------------------------------
G|3----3----3-------3-----------5----5----5-------3---
D|3----3----3-------x-----------5----5----5-------x---
A|1----1----1-------1-----------3----3----3-------1---
D|---------------0-------2~~~~~~---------------0------

E|----------------------------------------------------
B|----------------------------------------------------
G|---------12-------11---10---10//14----14--14--------
D|---------xx-------x----x----x///xx----xx--xx--------
A|---------10-------9----8----8///12----12--12--------
D|2~~~~~~---------------------------------------0--0--
           |This Is Riff A, Play With B         M  M
E|----------------------------------------------------
B|----------------------------------------------------
G|3-------/7--------7----7----7----7----/9------------
D|x-------/x--------x----x----x----x----/x------------
A|1-------/5--------5----5----5----5----/7------------
D|----------------------------------------------------

E|----------------------------------------------------
B|----------------------------------------------------
G|3------------12----11---10---10/14--14--14---------
D|x------------xx----x----x----x//xx--xx--xx---------
A|1------------10----9----8----8//12--12--12---------
D|------2~~~~~~--------------------------------0--0---
                                               M  M
E|----------------------------------------------------
B|----------------------------------------------------
G|10-10-10--------------/14--14--14--------10-10-10-7-
D|x--x--x--Play-This-On-/xx--xx--xx--------x--x--x--x-
A|8--8--8--Second-Time>-/12--12--12--------8--8--8--5-
D|-----------------------------------0--0-------------
                                     M  M
E|----------------------------------------------------
B|----------------------------------------------------
G|-----5//7--7--7----3----------------5//7--7----3----
D|0----x//x--x--x----x-----------0----x//x--x----x----
A|0----3//5--5--5----1-----------0----3//5--5----1----
D|0-----------------------2~~~~~~0--------------------
 Riff B
E|----------------------------------------------------
B|----------------------------------------------------
G|------------57--7--7----3----------------57--7--5-
D|-------0----xx--x--x----x-----------0----xx--x--x-
A|-------0----35--5--5----1-----------0----35--5--3-
D|2~~~~~~0----------------------2~~~~~~0--------------

E|----------------------------------------------------
B|----------------------------------------------------
G|7---------------------------------5/7--7--7----3----
D|x----------------------------0----x/x--x--x----x----
A|5-------------Play-This-On---0----3/5--5--5----1----
D|-----0--(2.7)-Second Time>---0----------------------
       M (Harm.)
E|----------------------------------------------------
B|----------------------------------------------------
G|----------------------------------------------------
D|----------------------------------------------------
A|--------------5--6-----9--8-----5-----9--8-----3--5-
D|2~~~~~~----0--------0--------0-----0--------0-------
             M........................................
E|----------------------------------------------------
B|----------------------------------------------------
G|------------------------------------7-----------8~~~
D|---------------------------------6-----------7------
A|8--6-----5--6-----9--8-----5------------------------
D|------0--------0--------0-----0--------0--0---------
  M..............................        M  M
E|----------------------------------------------------
B|----------------------------------------------------
G|--------------------------------------7-----------8~
D|2///////////////5///////////////8--6----------------
A|----------------------------------------------------
D|-----------------------------------------0--0--0----
           M  M  M
E|----------------------------------------------------
B|----------------------------------------------------
G|----------------------------------------------------
D|0------------4--0----0----0--1--0--3--0--4--3----0--
A|0------------4--0----0----0--1--0--3--0--4--3----0--
D|0----0--0----4--0----0----0--1--0--3--0--4--3----0--
       M  M                          
E|----------------------------------------------------
B|----------------------------------------------------
G|----------------------------------------------------
D|------4--0--0----0--1--0-----8----------------------
A|------4--0--0----0--1--0-----7----------------------
D|0--0--4--0--0----0--1--0--0-------------------------
  M  M                      M
This Should Be The Whole Song. You Will Have To Listen To The Song For When To Play What Part, But The Tab Should All Be Timed Out.  I Hope You Can Play This Now.





















 
:: Ultimate Guitar Archive :: 
http://www.ultimate-guitar.com 

 


Текст, аккорды и табулатура для песни "What If", исполняет "Creed".
Используемые в песне аккорды можно найти в разделе Как брать аккорды. Аккорды для шестиструнной гитары. Другие песни можно найти на нашем сайте, воспользовавшись алфавитным указателем вверху страницы.


Слушать онлайн What If


CreedWhat If на Яндекс.Музыке


 
Ошибка в тексте? Выделите ошибку и нажмите Ctrl+Enter