Person: Anthony Luttrell

song: What if

artist: Creed

tab: WHAT IF by Creed
Drop D Tunning:

  Intro:
w/fingers
Let ring throughout
e|---------------5--------3---------1-----------------1--|
B|--------5---6----6---5-----5---3-----3-----------3-----|
G|-----7----------------------------------1-----1--------|
D|-/7---------0------------------------------------------|
A|---------------------0---------1-----------1-----------|
D|-------------------------------------------------------|


e|----0-----------------0------0-------------------------|
B|-3-----3-----------3------2-----2---------------5------|
G|----------0-----0------------------0---------7---------|
D|-----------------------------------------/7------------|
A|-0-----------0------------0-----------0----------------|
D|-------------------------------------------------------|



e|----5------------3------------1-----------------1------|
B|-6-----6------5-----5------3-----3-----------3---------|
G|------------------------------------1-----1------------|
D|-0-----------------------------------------------------|
A|----------0---0--------0---1-----------1---------------|
D|-------------------------------------------------------|



e|----0------------------0------0-----------------0------|
B|-3-----3------------3------2-----2-----------2---------|
G|----------0-----0-------------------0-----0------------|
D|-------------------------------------------------------|
A|-0-----------0-------------0-----------0---------------|
D|-------------------------------------------------------|



e|-------------------------------------------------------|
B|-3-------------3--------3--------2h3-----5p3p2p0h2-----|
G|-------------------------------------------------------|
D|-------------------------------------------------------|
A|-1-------------1--------0----------------0-------------|
D|-------------------------------------------------------|


  Verse:
  w/pick
e|---------------------------------------------------------|
B|---------------------------------------------------------|
G|---------------------------------------------------------|
D|-0---0--0------------------0------0--0--0---0--0---------|
A|-0---0--0-------0--3h5--0--1------1--1--0---0--0-------0-|
D|-0---0--0--3h5--0-------0--0---0--2--2--0---0--0--3h5--0-|



e|------------------------
B|------------------------Then play it over again 
G|----------0-------------but end with 
D|----------0-------2--2--
A|--3h5--0--1-------1--1--             A|--3h5--|
D|-------0-----0----------


Gtr.2(dist.) P.M. 
e|-------------------------|
B|-------------------------|
G|-------------------------|
D|-------------------------|
A|-------------------------|
D|-------------0--2.7------|
                  ^*Harm. located between 2nd and 3rd frets  



   Riff A:

         P.M.---|   P.M.    P.M.   P.M.
e||-------------------------------------------
B||-------------------------------------------
G||.------------------------------------------
D||.------------------------------------------
A||---------------------3h5-----1-------------
D||---0---0--0h3--5--0-------0------0--2~~~---


    -------------------------------------------
    -------------------------------------------
    -------------------------------------------
    ---0---------------------------------------
    ---0-------------------3h5-----1-----------
    ---0--0--0--0h3--5--0-------0------0--2~~~-

    -------------------------------------------
    -------------------------------------------
    -------------------------------------------
    ---0---------------------------------------
    ---0-------------------3h5-----1-----------
    ---0--0--0--0h3--5--0-------0------0--2~~~-

    -------------------------------------------
    -------------------------------------------
    -------------------------------------------
    ---0---------------------------------------
    ---0-------------------3h5-----1-----------
    ---0--0--0--0h3--5--0-------0------0--2.7--
                                          *Harm.




   Chorus:

e|--------------------------------------
B|--------------------------------------
G|--3----3-----3----------3-------------
D|--3----3-----3----------x-------------
A|--1----1-----1----------1-------------
D|--------------------0----------2~~~---

   
  --------------------------------------
  --------------------------------------
  --5----5-----5----------3-------------
  --5----5-----5----------x-------------
  --3----3-----3----------1-------------
  --------------------0----------2~~~~-- 
                                             P.M.--| 
  --------------------------------------------------------
  --------------------------------------------------------
  -12------11-------10------10/14---14--14--------3---/7--
  --x-------x--------x-------x--x----x---x--------x----x--
  -10-------9--------8-------8/12---12--12--------1---/5--
  ------------------------------------------0--0----------

  -----------------------------------
  -----------------------------------
  -------5/7--7--7-----3-------------
  --0----X-X--X--X-----X-------------
  --0----3/5--5--5-----1-------------
  --0-------------------------2~~~~-- 
  
  -----------------------------------
  -----------------------------------
  -------5/7--7--7-----3-------------
  --0----X-X--X--X-----X-------------
  --0----3/5--5--5-----1-------------
  --0-------------------------2~~~~--  AND SO ON....


INTERLUDE:
 W/Wah:
    P.M.-------------------------------------------
e||--------------------------------------------------
B||--------------------------------------------------
G||.-------------------------------------------------
D||.-------------------------------------------------
A||------5--6----9--8-----5-----9--8-----3--5--8--6--
D||---0-------0--------0-----0--------0--------------
  
  P.M.-------------------------|      P.M.--|       
  ------------------------------------------------------||
  ------------------------------------------------------||
  -----------------------------------------------8~~~--.||
  ----------------------------------7---------7--------.||
  -------5--6-----9--8-----5-----6----------------------||
  ----0--------0--------0-----0---------0--0------------||


 Thats pretty much the whole song, theres no solo in it and if you
can't figure out the rest of it from what Ive given you than you can't
play guitar.  Heres the lyrics...

VERSE 1:
I can't find the rhyme in all my reason.
Lost sense of time and all seasons.
Feel Ive been beaten down
by the words of men who have no grounds.
Can't sleep beneath the trees of wisdom
when your ax has cut the roots that feed them.
Forked tounges in bitter mouths
can drive a man to bleed from inside out.

CHORUS:
What if you did?
What if you lied?
What if I avenge?
What if eye for an eye?

VERSE 2:
I've seen the wicked fruit of your vine
destroy the man who lacks a strong mind.
Human pride sings a vengful song
inspired by the times you've been walked on.
My stage is shared by many millions
who lift their heads up high because they feel this.
We are one, we are strong.
The more you hold us down the more we press on.

REPEAT CHORUS:

BRIDGE:
I know I can't hold the hate inside my mind,
what consumes your thoughts controls your life.
So I'll just ask a question, 
a lonely simple question.
I'll just ask one question:
What if? What if? What if? etc.....


Текст, аккорды и табулатура для песни "What If", исполняет "Creed".
Используемые в песне аккорды можно найти в разделе Как брать аккорды. Аккорды для шестиструнной гитары. Другие песни можно найти на нашем сайте, воспользовавшись алфавитным указателем вверху страницы.


Слушать онлайн What If


CreedWhat If на Яндекс.Музыке


 
Ошибка в тексте? Выделите ошибку и нажмите Ctrl+Enter