Creed-Weathered
Tabbed My Dave Wachala
[email protected]

standard tuning with dropped D

here is the main riff
-----------------------------------------
-5p3--3--3-------------------5p0-5/7-----
----4------2-------------------------75-
-------------0-------------0-------------
-3----3--2-----0----5---/9---------------
-----------------3/5---------------------
                               Harm...
-----------------------------------------
-5p3--3--3--------------------------*----
----4------2-------------------*----7----
-------------0-------------0---7----*----
-3----3--2-----0----5---/9-----*---------
-----------------3/5---------------------

This is played at 1:09
--------------------------------------1085-
-5p3--3--3----------------------6--5p6-------
----4------2------------------7---7----------
-------------0-------------0-----------------
-3----3--2-----0----5---/9-------------------
-----------------3/5-------------------------

Chorus:
A5   Bb         xF5           x 
Me...I'm rusted and Weathered, barely holding together
------------------------------------------------------
------------------------------------------------------
-------------------------------5/7---5--2-------------
-------------------------------x-x---x--2-------------
-------------------------------3/5---3--0-------------
------------------------------------------------------

Bb5                    C5
I'm covered w/ skin that peels and it just won't heel
------------------------------------------------------
------------------------------------------------------
------------------------------------------------------
------------------------------------------------------
------------------------------------------------------
------------------------------------5p3--0--3-----5---

Bridge:
------------------------------------------
------------------------------------------
-7-x-7-x-7-x-7-7h9p7--7-x-7-x-7-x-7--7----
----------------------8-x-8-x-8-x-8--5----
-5-x-5-x-5-x-5-5---5--5-x-5-x-5-x-5--5----
------------------------------------------


Текст, аккорды и табулатура для песни "Weathered", исполняет "Creed".
Используемые в песне аккорды можно найти в разделе Как брать аккорды. Аккорды для шестиструнной гитары. Другие песни можно найти на нашем сайте, воспользовавшись алфавитным указателем вверху страницы.


Слушать онлайн Weathered


CreedWeathered на Яндекс.Музыке


 
Ошибка в тексте? Выделите ошибку и нажмите Ctrl+Enter