Main Riff                   Ending 1  Ending 2
d-|-3p0------------(0)--------------------|------14-|2p0----------|
D-|-------0---------0---------------------|-12---12-|----2/4---0--|
A-|-----0---0---------0-------------------|-12------|------------3|
D-|-----------0---------0--------0-5/3--0-|---------|-------------|
A-|-------------0--------------0----------|---------|-------------|
D-|-----------------------3/5-------------|---------|-------------|

For ending 3, make some harmonics and/or just hold one note in the scale, 
this is a very 
bluesy song in that you can pretty much imrpov after the main riff.  Endin 1 
is played the 
first time and ending 2 is played about every 4th time, or in guitar breaks.  
Then before 
the chorus hold out the 'creed' harmonic, 2.7 fret, low D string.


   Chorus (strumming patterns not shown, measures are)
  Distorted
d-|-0--8-|-3---------|----|------------------------------|
D-|-0--8-|-3---------|----|------------------------------|
A-|-0--8-|-3-3/5-3-0-|----|------------------------------|
D-|-0--8-|-3-------0-|----|8-------8-------8-------8-8-8-|
A-|-0--8-|-3-3/5-3-0-|-8--|8-------8-------8-------8-8-8-|
D-|-0--8-|-3---------|-9--|8-8-8-8-8-8-8-8-8-8-8-8-8-8-8-|

d-|----------------------------|
D-|----------------------------|
A-|----------------------------|
D-|-5-------5-------5-3-0-3-3--|
A-|-5-------5-------5-3-0-3-3--|
D-|-5-5-5-5-5-5-5-5-5-3-0-3-3--|

Play the chorus 2X, then go back to the verse, then chorus 4X, then the 
interlude:
   Heavy Distortion
I.
d-|------------------------------|
D-|------------------------------|
A-|5-----5-----5-----5-----5h6p5-|
D-|x-----x-----x-----x-----x-----|
A-|5-----5-----5-----5-----5-----|
D-|--0-0---0-0---0-0---0-0-------|

II.
d-|------------------------------|
D-|------------------------------|
A-|1-----1-----1-----1-----1h3p1-|
D-|x-----x-----x-----x-----x-----|
A-|1-----1-----1-----1-----1-----|
D-|--0-0---0-0---0-0---0-0-------|

III.
d-|------------------------------|
D-|------------------------------|
A-|0-----0-----0-----0-----0-----|
D-|0-----0-----0-----0-----0-----|
A-|0-----0-----0-----0-----0-----|
D-|--0-0---0-0---0-0---0-0-------|

The pattern is I, II, III, II  Play that twice

IV.
Strumming Not Shown

d-|9----3-|---2----3-----------------|
D-|9----3-|---2----3-----------------|
A-|7----1-|---0----1-----------------|
D-|-------|-----------8--5--5-3-0-3-3|
A-|-------|-----------8--5--5-3-0-3-3|
D-|-------|-----------8--5--5-3-0-3-3|

Then play the chorus a couple times, and end on all the open strings.  Good 
luck!


Текст, аккорды и табулатура для песни "Weathered", исполняет "Creed".
Используемые в песне аккорды можно найти в разделе Как брать аккорды. Аккорды для шестиструнной гитары. Другие песни можно найти на нашем сайте, воспользовавшись алфавитным указателем вверху страницы.


Слушать онлайн Weathered


CreedWeathered на Яндекс.Музыке


 
Ошибка в тексте? Выделите ошибку и нажмите Ctrl+Enter