#----------------------------------PLEASE NOTE--------------------------------#
#This file is the author's own work and represents their interpretation of the#
#song. You may only use this file for private study, scholarship, or research.#
#-----------------------------------------------------------------------------#
#-- File created with Instab - http://www.pconline.com/~smcarey/instab.html --#
#-----------------------------------------------------------------------------#

Author/Artist: Creed
Title: Pity For A Dime
Album: My Own Prison
Transcribed by: Scott Dumas
Email: [email protected]

i didn't tab it out in time cause i have no idea what that is 
as far as writing it down but i got all the notes here and i got
the solo so just listen to the song and have fun with it

Intro w/clean electric
-----0---4-----------------------------5--------------------------------------
-0---0---4-4---------------5p4---------5--------------------------------------
-9-9-9-0-4-4-------------6-----6-----6-6--------------------------------------
-9-9---0-4-x-4---------6---------6h7-7----------------------------------------
-7-7-----4-7-6-6h7p6-4---------------7---------9-7----------------------------
-0-0---------------------------------5---0-5/7--------------------------------
                                      
                                      2nd ending                              
------------0---------4-4-4-----7-----|-4-4-4-5-5-5-5-------------------------
-0------------0-------4-4-4---7-7-----|-4-4-4-5-5-5-5-------------------------
-9-9-6---------6---5-5-5-5-8-8-8-----|-5-5-5-6-6-6-6-------------------------
-9-9---6---------6---6-6-6-9-9-9-9-9-|-6-6-6-7-7-7-7-9-----------------------
-7-7-----4-----------6-6-6-9-9---7-7-|-6-6-6-7-7-7-7-7-7---------------------
-0--------------------4-4-4-7-7---0-0-|-4-4-4-5-5-5-5-0-0---------------------

 going into chorus.. w/clean electric                                                         
---------------------5--------------------------------------------------------
-------5p4-----------5-------0------------------------------------------------
-----6-----6-----6-6-6-6-6---0------------------------------------------------
---6---------6h7-7-7---7-7-7-0------------------------------------------------
-4---------------7-----7-7-7--------------------------------------------------
-----------------5-----5-5-5--------------------------------------------------

 1st chorus w/clean electric                                                                      
-0-0-0-0-0-0-0-0-0-3-3-3-3-3-3-3-3-3-3-3-3-3-2-2-2-2-2-2-0-0-0-0-0-0----------
-0-0-0-0-0-0-0-0-0-3-3-3-3-3-3-3-3-3-3-3-3-3-2-2-2-2-2-2-0-0-0-0-0-0----------
-9-9-9-9-9-9-9-9-9-4-4-4-4-4-4-4-4-4-4-4-4-4-4-4-4-4-3-3-3-3-3-3--------------
-9-9-9-9-9-9-9-9-9-5-5-5-5-5-5-5-5-5-5-5-5-5-4-4-4-4-4-4-4-4-4-4--------------
-7-7-7-7-7-7-7-7-7-5-5-5-5-5-5-5-5-5-5-5-5-5-2-2-2-2-4-4-4-4-4-4--------------
-0-0-0-0-0-0-0-0-0-3-3-3-3-3-3-3-3-3-3-3-3-3---------2-2-2-2-2-2--------------
 
interlude (clean)                           2nd ending w/distortion          
---0---0-3p0---0-0-0-0----------------------|---------------------------------
-0-0-x-0-0---x-3-0-0-0-0--------------------|---------------------------------
-1-1-x-1-1---x-1-1-1-1-1--------------------|---------------------------------
-2-2-x---2---x-2-2-2-2-2--------------------|---------------------------------
-2-2---------------2-2---2-2---2-2---2-2----|-2-2---2-2---2-2-----------------
-0-0---------------0-0---0-0-3-0-0-3-0-0-3v-|-0-0-3-0-0-3-0-0-3b--------------
                                                              1/4             
bridge                                                       
------------------------------------------------------------------------------
---8-----8-8-8-8---8-----7-7-7-7-7---7--7-7-7-7-7-7-0-----0-------------------
---x-----x-x-x-x---x-----7-7-7-7-7---7--7-7-7-7-7-7-0-----------4-4-----------
---6-----6-6-6-6---6-----6-6-6-6-6---6--6-6-6-6-6-6-0-5-5-------4-4-----------
------------------------------------------------------3-3---5-5-2-2-4-4-4-4---
-0---0-0---------0---0-0-----------0------------------------3-3-----2-2-2-2---
                                                                              

--------|---------------------------------------------------------------------
--------|-----8---8-8-8-8-8---8-----------------------------------------------
--------|---0-x---x-7-7-7-7---7-----------------------------------------------
-----x3-|---0-6---6-6-6-6-6---6-------------------7-6-5-----------5-5-5-------
-4------|-2-------------------------5h7-----2-2-2-------7-6-5-----3-3-3-5-5---
-2-3----|-0-----0-----------0---0-0-----0-0-0-0-0-------------7-5-------3-3---
                                                                              

------------------------------------------------------------------------------
------------------------------------------------------------------------------
------------------------------------------------------------------------------
-4-4-4------------------------------------------------------------------------
-2-2-2-4---4---4-5-2----------------------------------------------------------
-------2-0-2-0-2-3-0----------------------------------------------------------
 
2nd chorus w/distortion                 let ring  |-------------|            
---------------------------------------------------0-----0--------------------
-----------------------------------------------------0-----0------------------
-------9-----------------4-4-4-4-4-4-4---4-4-4-3-3-----3-----3----------------
-9-9-9-9-9-9-------------5-5-5-5-5-5-5-0-4-4-4-4-4----------------------------
-7-7-7-7-7-7-0-0-5-5-5-5-5-5-5-5-5-5-5-0-2-2-2-4-4----------------------------
---------0-0-0-0-3-3-3-3-3-3-3-3-3-3-3---------2-2-------------0--------------
 
SOLO - guitar 2                                                              
------------------------------------------------------------------------------
------------------------------------------------------------------------------
-9-9-9999999999999999-99-9---5-5-4-4-4-3-3-3-3-3-3----------------------------
-9-9-9999999999999999-99-9---5-5-5-4-4-4-4-4-4-4-4---x4-----------------------
-7-7-7777777777777777-77-7-0-3-3-5-2-2-4-4-4-4-4-4----------------------------
-0-0-0000000000000000-00-0-0-----3-----2-2-2-2-2-2----------------------------
 
SOLO - guitar 1                                                              
--------------------------------------------------------------15-----14-------
-----------------------------------------------------------------15v----14v---
-2b-2brp0---0-------------12---------------------0-2brp0----------------------
----------2---------12-14----14-14^v---------0-2---------2--------------------
--------------------12-------------------0h2---------------0------------------
------------------------------------------------------------------------------
 full bends                     P.H.               1/2                        

------------------------------------------------------------------------------
-14-----15----------15-----15---15v------------------------------------------
---------14b------------------------------------------------------------------
------------------------------------------------------------------------------
--------------------------------------------0---------------------------------
------------------------------------------------------------------------------
         full          -1/2           -6    -6 -5 -6 -5 -6 -5 -6 -5 -6 -5 -6  

------------------------------------------------------------------------------
----------------------13-13-12-12---0-15---15---------------------------------
-------------5-5-4--4-------------0---14b--14br-14brp12----12v-12-------------
--------------------------------------------------------14--------14----------
-15---3-2-2-----------------------------------------------------------12-14--
------------------------------------------------------------------------------
                                      full bends                              

------------------------------------------------------------------------------
--------------------------/12-12-12h13p12----12-------------------------------
----------------12------------------------14----14-12-11h12p11----------------
-12----------------14-14--------------------------------------14----14-13----
----14-14-12-14---------------------------------------------------------------
------------------------------------------------------------------14----------

slight P.M.
      |.................................................................... 
------------------------------------------------------------------------------
------------------------------------------------------------------------------
------------------------------------------------------------------------------
------------------------13-14-16-14-13--------------------------------13-14---
-14-----------12-14-15----------------15-14-12--------------12-14-15---------
------12-14-15----------------------------------15-12--14-15------------------
      
................................................| 
------------------------------------------------------------------------------
------------------------------------------------------------------------------
------------------------------------------------------------------------------
-16-14-13-----------------------------------13-13-16-13-14----13--------------
----------15-14-12-----------------12-14-15----------------15----14-15-12-----
-------------------15-14--12-14-15--------------------------------------------
                             
            pick really fast................................................
------12-12-1512141514121712141514121512141514121712141514121512121215121415--
------------------------------------------------------------------------------
------------------------------------------------------------------------------
------------------------------------------------------------------------------
-14v--------------------------------------------------------------------------
------------------------------------------------------------------------------
                                                                              
 .............|
-15121415171415-18-18b--------------------------------------------------------
------------------------------------------------------------------------------
------------------------------------------------------------------------------
------------------------------------------------------------------------------
------------------------------------------------------------------------------
------------------------------------------------------------------------------
             1/2                                                        
Outro 
------------------------------------------------------------------------------
---------------------------------------------------------8--------------------
-------------------0-------------------------------------x--------------------
-5-5-5---0-4-4-4---0-------0-5-5-5------4-4-4------------6--------------------
-3-3-3-5-0-2-2-2-4---4-0-0-0-3-3-3-5--5-2-2-2-4-0-4------7--------------------
-------3---------2---2-0-0---------3--3-------2-0-2-0-0--0--------------------
                                                                              

thats it a great song work at it and you'll get it any questions or comments please 
email me and please rate this tab along with my other ones.. thanks.


Текст, аккорды и табулатура для песни "Pity For A Dime", исполняет "Creed".
Используемые в песне аккорды можно найти в разделе Как брать аккорды. Аккорды для шестиструнной гитары. Другие песни можно найти на нашем сайте, воспользовавшись алфавитным указателем вверху страницы.


Слушать онлайн Pity For A Dime


Vitamin String QuartetPity For A Dime на Яндекс.Музыке


 
Ошибка в тексте? Выделите ошибку и нажмите Ctrl+Enter