One Last Breath
By: Creed
Album: Weathered
Tabbed by: Aarron Williams
E-mail: [email protected]

Riff 1
E|-2----5----0h2-------------------------------------------------------------------3-2-|
B|----------------3------2-3-3h5---3h5p3p2h3-0----3----2h3----------------3-0----------|
G|------------------2--------------------------------------------4---------0-----------|
D|-0-0----0--------------------------------------------------------0----0---0----------|
A|---------------------0----------0--------------2-2----2------------------------------|
E|---------------------------------------------------------------------3---------------|

E|-2----3-2-0h2p0-------------------------------------2-------------------3----------|
B|------------------3----------2-2h3p2--------------2---2-------------------3--------|
G|---------------------------2-------------0-------4--------4-----------4------4-----|
D|-0-0--------------------2-------------4-------4-------------4------5-----------5---|
A|--------------------4-0---------------------2---------------------5----------------|
E|-----------------------------------------------------------------3-----------------|

Riff 2a- Strumming patterns not shown
E|------------------------3-------------------------------------------|
B|----------------2------3--------------------------------------------|
G|-7------3------4------4---------------------------------------------|
D|-7------4------4------5---------------------------------------------|
A|-5------4------2------5---------------------------------------------|
E|---------2-------------3--------------------------------------------|

Riff 2b- Same as Riff 2a, only with distortion

Riff 3
E|--------------------------------------------------------------------|
B|--------------------------------------------------------------------|
G|-4-------------4----------------------------------------------------|
D|-4------5------4------5---------------------------------------------|
A|-2------5------2------5---------------------------------------------|
E|---------3-------------3--------------------------------------------|

Riff 4
E|--------------------------------------------------------------------|
B|--------------------------------------------------------------------|
G|----------7---------------------------------------------------------|
D|-2---5---7----7----9----5-------------------------------------------|
A|-2---5---5----7----9----5-------------------------------------------|
E|-0---3---------5----7----3------------------------------------------|

Riff 5
E|-2----5----0h2-----------------------------------------------------------------3--|
B|----------------3------2-3-3h5---3h5p3p2h3-0-----3----2h3--------------------3----|
G|------------------2---------------------------------------------4----------0------|
D|-0-0----0---------------------------------------------------------0-----0---0-----|
A|---------------------0----------0--------------2--2----2--------------------------|
E|----------------------------------------------------------------------3-----------|

Riff 1    3X
Riff 2a  2X
Riff 1    3X
Riff 2b  4X
Riff 3    1X
Riff 4    2X
Riff 2a  2X
Riff 2b  4X
Riff 5    1X


Текст, аккорды и табулатура для песни "One Last Breath", исполняет "Creed".
Используемые в песне аккорды можно найти в разделе Как брать аккорды. Аккорды для шестиструнной гитары. Другие песни можно найти на нашем сайте, воспользовавшись алфавитным указателем вверху страницы.


Слушать онлайн One Last Breath


CreedOne Last Breath на Яндекс.Музыке


 
Ошибка в тексте? Выделите ошибку и нажмите Ctrl+Enter