Drop D tuning

1=E 4=D
2=B 5=A
3=G 6=D

Guitar Notation 
^=bend
/=slide

Intro (clean)                 play 5 times

E----------------------------------------------------------
B----------------------------------------------------------
G-----8^(8)-----3^(3)-----7^(7)------2^(2)-----------------
D----------------------------------------------------------
A----------------------------------------------------------
D-----6---------1---------5----------0---------------------

Verse                      play 8 times

E----------------------------------------------------------
B----------------------------------------------------------
G-----8^(8)-----3^(3)-----7^(7)------2^(2)-----------------
D----------------------------------------------------------
A----------------------------------------------------------
D-----6---------1---------5----------0---------------------

Chorus                 pay 2 times

E---------------------------------------------------------
B---------------------------------------------------------
G-------------------8^(8)-----3^(3)-----7^(7)-----2^(2)---
D---0-0----0-0------6---------1---------5---------0--------
A---0-0----0-0------6---------1---------5---------0--------
D---0-0----0-0------6-----0-0-1---------5---------0---------

E-----------------------------------------------------------
B-----------------------------------------------------------
G-------7-----7-----8^(8)-----3^(3)-----7^(7)-----2---------
D---0-0-x-0-0-x-----6---------1---------5---------0---------
A---0-0-5-0-0-5-----6---------1---------5---------0---------
D---0-0---0-0-------6---------1---------5---------0---------

repeat the verse and Chorus.......

Intrlude a     play 2 times

E-----------------------------------------------------------
B-----------------------------------------------------------
G---11--12--12/14--14/15/14--14/11--11--12--12/14--14/15/14-
D---X---X---X------X----------X-----X---X------X------------
A---9---10--10/12--12/13/12---12/9--9---10--10/12--12/13/12-
D---0---0---0------0-----------0-- -0---0---0------0--------

E-----------------
B-----------------
G--11/12--12--11--
D--X------X---X---
A--9------10--9---
D--0------0---0---

Bridge.....well ididn't hear any guitar parts hear.

Interlude b
                                          wah-wah ths part
E----------------------------------------------------------
B----------------------------------------------------------
G-11/12---12-----12--12--11---X--X--X--X--11--11--11--11---
D-X-------X------X---X---X----X--X--X--X--X---X---X---X----
A-9/10----10-----10--10--9----X--X--X--X--9---9---9---9----
D-0-------0------0---0---0----X--X--X--X--0---0---0---0----

play interlude a one time

E-----------------------------------------------------------
B-----------------------------------------------------------
G--------2^(2)----------------------------------------------
D--------0-----------0--0--0--0--0--0--0--0-----------------
A--------0-----------0--0--0--0--0--0--0--0-----------------
D---0-0--0-----------0--0--0--0--0--0--0--0-----------------

E-----------------------------------------------------------
B-----------------------------------------------------------
G--8^(8)--------3^(3)--------7^(7)--------2^(2)-------------
D--6------------1------------5------------0--------0-0---0-0
A--6------------1------------5------------0--------0-0---0-0
D--6------0-0---1------0-0---5-------0-0--0--------0-0---0-0

E-----------------------------------------------------------
B-----------------------------------------------------------
G--8^(8)--------3^(3)--------7^(7)--------2^(2)-------------
D--6------------1------------5------------0----0-0--0-0--0-0
A--6------------1------------5------------0----0-0--0-0--0-0
D--6------------1------------5------------0----0-0--0-0--0-0

Outro
                                           Pay 2times
E-----------------------------------------------------------
B-----------------------------------------------------------
G----8^(8)----3^(3)----7^(7)-----2^(2)----------------------
D-----------------------------------------------------------
A-----------------------------------------------------------
D----6--------1--------5---------0--------------------------


Текст, аккорды и табулатура для песни "Never Die", исполняет "Creed".
Используемые в песне аккорды можно найти в разделе Как брать аккорды. Аккорды для шестиструнной гитары. Другие песни можно найти на нашем сайте, воспользовавшись алфавитным указателем вверху страницы.


Слушать онлайн Never Die


CreedNever Die на Яндекс.Музыке


 
Ошибка в тексте? Выделите ошибку и нажмите Ctrl+Enter