Artist: Creed
Song: My Sacrifice
Album: Weathered
Written by: Mark Tremonti
Tabbed by: Drew Montgomery
E-mail: [email protected]
Tuning: Drop-D(D-A-D-G-B-E-)

I've redone my earlier version(ver6), and I've included the
Bridge. God bless and rock on!!!

Intro(clean with delay)

E|------------------------------------------------------|
B|----------3-----------------------------0-------------|
G|----2-------2---------------------14------------------|
D|------4-------4----------------12----12---------------|
A|--2-----2-------------2-----10------------------------|
D|------------------------------------------------------|

E|------------------------------------------------------|
B|------------------------------------------------------|
G|--7-7-76-6/7----7-7-76-6--11-11-11-11/12-12-12------|
D|--x-x-xx-x/x----x-x-xx-x--x--x--x--x-/x--x--x-------|
A|--5-5-54-4/5----5-5-54-4--9--9--9--9-/10-10-10------|
D|------------------------------------------------------|

E|------------------------------------------------------|
B|----------3-----------------------------0-------------|
G|----2-------2---------------------14------------------|
D|------4-------4----------------12----12---------------|
A|--2-----2-------------2-----10------------------------|
D|------------------------------------------------------|

Verse(distortion)

E|------------------------------------------------------|
B|------------------------------------------------------|
G|--7-7-76-6/7-----7-----7/97-7-76-6/7-----7-----7---|
D|--x-x-xx-x/x-0-0-x-0-0-x/xx-x-xx-x/x-0-0-x-0-0-x-0-|
A|--5-5-54-4/5-0-0-5-0-0-5/75-5-54-4/5-0-0-5-0-0-5-0-|
D|--------------0-0---0-0-----------------0-0---0-0---0-|
              pm...   ...                 ...   ...   .
E|------------------------------------------------------|
B|------------------------------------------------------|
G|------------------------------------------------------|
D|--4-4-4-4-4-4-4-4-4---12-12-12-12-12-12-12-12-12------|
A|--2-2-2-2-2-2-2-2-2---10-10-10-10-10-10-10-10-10------|
D|------------------------------------------------------|

Chorus(distortion)

E|------------------------------------------------------|
B|------------------------------------------------------|
G|---------14-12-11-11-9-9-9-9-9-9-9-9-9----------------|
D|--7-7-7--0--0--0--0--0-0-0-0-0-0-0-0-0--4-4-4-4-4-4---|
A|--5-5-5--0--0--0--0--0-0-0-0-0-0-0-0-0--2-2-2-2-2-2---|
D|---------0--0--0--0--0-0-0-0-0-0-0-0-0----------------|

E|------------------------------------------------------|
B|------------------------------------------------------|
G|------------------------------------------------------|
D|--4-4-4--0-0--5-5-5-5p3-3-0-3-------------------------|
A|--2-2-2--0-0--5-5-5-5p3-3-0-3-------------------------|
D|---------0-0--5-5-5-5p3-3-0-3-------------------------|
         pm...              .
Solo(distortion)

E|------------------------------------------------------|
B|------------------------------------------------------|
G|--11-119---9-97---7-76---4/6-7-7-76-6/9-----------|
D|--x--x-x-0-x-xx-0-x-xx-0-x/x-x-x-xx-x/x-----------|
A|--9--9-7-0-7-75-0-5-54-0-2/4-5-5-54-4/7-----------|
D|----------0-------0-------0---------------------------|

E|------------------------------------------------------|
B|------------------------------------------------------|
G|--15-15-15-15---15-15-15-15---------------------------|
D|--x--x--x--x--0-x--x--x--x--0-0-0-0-------------------|
A|--13-13-13-13-0-13-13-13-13-0-0-0-0-------------------|
D|--------------0-------------0-0-0-0-------------------|
              pm.             .....
Bridge(clean with flanger)

E|------------------------------------------------------|
B|------------------------------------------------------|
G|---------14-12-11-11-9-9-9-9-9-9-9-9-9----------------|
D|--7-7-7--0--0--0--0--0-0-0-0-0-0-0-0-0--4-4-4-4-4-4---|
A|--5-5-5--0--0--0--0--0-0-0-0-0-0-0-0-0--2-2-2-2-2-2---|
D|---------0--0--0--0--0-0-0-0-0-0-0-0-0----------------|

E|---------------------0--------------------------------|
B|-------------------0----------------------------------|
G|----------------11------------------------------------|
D|--4-4-4------11----------12-12-12-12-12-12-12-12-12---|
A|--2-2-2----9-------------10-10-10-10-10-10-10-10-10---|
D|------------------------------------------------------|

When Mark comes out of the Bridge and into the final 
Chorus he plays this little fill.

Fill(distortion)

E|------------------------------------------------------|
B|------------------------------------------------------|
G|------------------------------------------------------|
D|--0-0-0-0-0-------------------------------------------|
A|--0-0-0-0-0-------------------------------------------|
E|--0-0-0-0-0-3.5*--------------------------------------|
  pm.........

And that's it for this song. Good luck!!!


Текст, аккорды и табулатура для песни "My Sacrifice", исполняет "Creed".
Используемые в песне аккорды можно найти в разделе Как брать аккорды. Аккорды для шестиструнной гитары. Другие песни можно найти на нашем сайте, воспользовавшись алфавитным указателем вверху страницы.


Слушать онлайн My Sacrifice


CreedMy Sacrifice на Яндекс.Музыке


 
Ошибка в тексте? Выделите ошибку и нажмите Ctrl+Enter