D5 Tuning (low to high) DADADD

Hey here is the way Mark plays it live some times.he he sounds grate to!

Guitar Notation
/= slide up
H= hammer on
P= pull off
P.M.= Palm Mute
B=bend
*=harmonics

Pick the intro with your fingers to make it sound better
D---------------0-------------------------------------------
D-----------------0-----------------------------0----------
A--------4-----------4--------------------12-----12--------
D----------4------------4--------------12----12----12------
A-----2------2-------------2----0---10---------------10---
D----------------------------------------------------------

Figure 2

D--------------------------------------------------------------------------------
D--------------------------------------------------------------------------------
A----------5--5--4-4/5---5--5--4-4/5--5/-4-4--5-5--4-4--5---5--5--4-4--5--4-4-4--
D----------x--x--x-x-x---x--x--x-x-x--x--x-x--x-x--x-x--x---x--x--x-x--x--x-x-x--x3
A----------5--5--4-4/5---5--5--4-4/5--5/-4-4--5-5--4-4--5---5--5--4-4--5--4-4-4--
D----------0--0--0-0-0---0--0--0-0-0--0--0-0--0-0--0-0--0---0--0--0-0--0--0-0-0--

Strum these a bit
D------------------
D------------------
A---4------12------
D---4------12------
A---2------10------
D------------------

D--0-0--0--0-0-0-0-0-0------------------------------------------------------
D--0-0--0--0-0-0-0-0-0------------------------------------------------------
A--0-0--0--0-0-0-0-0-0--0-0-0-0-0-0-----------------------------------------
D--0-0--0--0-0-0-0-0-0--7-7-7-7-7-7--9-9-9-11-11-11----9-9-9-11-11-11--9-9--
A--0-0--0--0-2/3/2-0-0--4-4-4-4-4-4--9-9-9-11-11-11----9-9-9-11-11-11--9-9--
D--0-0--0--0-0-0-0-0-0--0-0-0-0-0-0--9-9-9-9--9--9-----9-9-9--9--9--9--9-9--


D------------------------------------------
D------------------------------------------
A------------------------------------------
D--5-55-5-5-5-55-5--55--33--00--33--55-----
A--5-55-5-5-5-55-5--55--33--00--33--55-----
D--5-55-5-5-5-55-5--55--33--00--33--55-----

D------------------------------------------------------------------
D------------------------------------------------------------------
A-----9-9/7-7----7-7/5-5----5-5/4-4-----2-2/4-4---5-5/4-4/7-7/5-5--
D-----x-x-x-x----x-x-x-x----x-x-x-x-----x-x-x-x---x-x-x-x-x-x-x-x--
A-----9-9/7-7----7-7/5-5----5-5/4-4-----2-2/4-4---5-5/4-4/7-7/5-5--
D---0----------0----------0----------00----------0-----------------
PM --          -          -          --          -                 

D-------------------------------      -------------
D-------------------------------      -------------
A--13-13-13-13---13-13-13-13----      ----------0---
D---x--x--x--x----x--x--x--x----x2    --0-0-0---0--Let Ring
A--13-13-13-13---13-13-13-13----      --0-0-0---0--
D---0--0--0--0----0--0--0--0----      --0-0-0---0--

Bridge
Strum Lightly
D---0-0-05-7/5/4-----------------------------------------------
D---0-0-00-0-0-0-----------------------------------------------
A---0-0-00-0-0-0---00-0-0-0-00-0-0-0---0--0--0--00---0--0--0---
D---0-0-00-0-0-0---77-7-7-7-77-7-7-7--11-11-11-11-11-11-11-11--
A---0-0-00-0-0-0---44-4-4-4-44-4-4-4---9--9--9--9-9--9--9--9---
D---0-0-00-0-0-0---00-0-0-0-00-0-0-0---9--9--9--9-9--9--9--9---

D------------------------
D------------------------
A---0-0-0-0-00-0---------
D---5-5-5-5-55-5---------
A---5-5-5-5-55-5---------
D---5-5-5-5-55-5---------


Well this is the song and this is prolly not 100% correct but it sure does sound like it
have fun with it.:)


Текст, аккорды и табулатура для песни "My Sacrifice", исполняет "Creed".
Используемые в песне аккорды можно найти в разделе Как брать аккорды. Аккорды для шестиструнной гитары. Другие песни можно найти на нашем сайте, воспользовавшись алфавитным указателем вверху страницы.


Слушать онлайн My Sacrifice


CreedMy Sacrifice на Яндекс.Музыке


 
Ошибка в тексте? Выделите ошибку и нажмите Ctrl+Enter