Artist: Creed
Song: My Own Prison
Album: My Own Prison
Written by: Mark Tremonti
Tabbed by: Drew Montgomery
E-mail: [email protected]
Tuning: Drop-D(D-A-D-G-B-E)
Key: h = hammer on, v = vibrato, . = palm mute

This is the correct way to play My Own Prison
from Creed. God bless and rock on!!!

Intro(slight distortion)

E|----------------------------------------------------|
B|--------3-------------------------------------------|
G|--------2----------0---------5--5-------------------|
D|-----0--0------0h3---3-------3--3--3----------------|
A|-----0--0--0h1---------0--3--3--3--3--3h5-3---------|
D|--0--0--------------------3--3--------------5-3-----|

Verse(slight distortion)

E|----------------------------------------------------|
B|--------3-------------------------------------------|
G|-----2--2----------0---------5--5-------------------|
D|-----0--0------0h3---3-------3--3--3------------0---|
A|-----0--0--0h1---------0--3--3--3--3--3h5-3---------|
D|--0--0--------------------3--3--------------5-3-----|

1st Chorus(Guitar 1)(clean)

E|----------------------------------------------------|
B|------3-3----5--5----6-6-6-6-6----------------------|
G|--2---2-2----4--4----5-5-5-5-5----------------------|
D|--0---0-0--0-0--0----0-0-0-0-0----------------------|
A|--0-------------------------------------------------|
D|--0-------------------------------------------------|

1st Chorus(Guitar 2)(clean)

E|----------------------------------------------------|
B|----------------------------------------------------|
G|----5-5-5-5-5-5-5-4-4-4-4-4-4-4-3-3-3-3-3-3-3-3-----|
D|----3-3-3-3-3-3-3-2-2-2-2-2-2-2-1-1-1-1-1-1-1-1-----|
A|--3-3-3-3-3-3-3-3-2-2-2-2-2-2-2-1-1-1-1-1-1-1-1-----|
D|--3-3-3-3-3-3-3-3-2-2-2-2-2-2-2-1-1-1-1-1-1-1-1-----|

E|----------------------------------------------------|
B|----------3-3-3-3-3-3-3-3-3-3-3---------------------|
G|--3-3-3-3-2-2-2-2-2-2-2-2-2-2-2---------------------|
D|--1-1-1-1-0-0-0-0-0-0-0-0-0-0-0---------------------|
A|--1-1-1-1-0-0-0-0-0-0-0-0-0-0-0---------------------|
D|--1-1-1-1-0-0-0-0-0-0-0-0-0-0-0---------------------|

Interlude(distortion)

E|----------------------------------------------------|
B|----------------------------------------------------|
G|----------------------------------------------------|
D|---------0h3-------3----------0---------------------|
A|-----0h1-----1--0--3h5-3----------------------------|
D|--0----------------------5-3------------------------|
                                .
E|----------------------------------------------------|
B|-----3--3-3-3---------------------------------------|
G|-----2--2-2-2-------------5--5----------------------|
D|-----0--0-0-0--3--3-------3--3--3------------0------|
A|--0--0--0-0-0--1--1-0-0-3-3--3--3-3h5-3-------------|
D|--0--0--0-0-0-----------3-3--3----------5-3---------|
                      ...
2nd Chorus(distortion)

E|----------------------------------------------------|
B|----------------------------------------------------|
G|----5-5-5-5-5-5-5-4-4-4-4-4-4-4-3-3-3-3-3-3-3-3-----|
D|----3-3-3-3-3-3-3-2-2-2-2-2-2-2-1-1-1-1-1-1-1-1-----|
A|--3-3-3-3-3-3-3-3-2-2-2-2-2-2-2-1-1-1-1-1-1-1-1-----|
D|--3-3-3-3-3-3-3-3-2-2-2-2-2-2-2-1-1-1-1-1-1-1-1-----|

E|----------------------------------------------------|
B|----------3-3-3-3-3-3-3-3-3-3-3---------------------|
G|--3-3-3-3-2-2-2-2-2-2-2-2-2-2-2---------------------|
D|--1-1-1-1-0-0-0-0-0-0-0-0-0-0-0---------------------|
A|--1-1-1-1-0-0-0-0-0-0-0-0-0-0-0---------------------|
D|--1-1-1-1-0-0-0-0-0-0-0-0-0-0-0---------------------|

Bridge(distortion and flanger)

E|----------------------------------------------------|
B|----------------------------------------------------|
G|----------------------------------------------------|
D|-------------------------15--15---------------------|
A|--12vvvvvvvvvvv--0-12h13--------13-12vvvvvvvvvvvv---|
D|----------------------------------------------------|

E|----------------------------------------------------|
B|----------------------------------------------------|
G|----------------------------------------------------|
D|----------15--15---------------------------15-------|
A|--0-12h13--------13-12vvvvvvvvvvv--0-12h13----------|
D|----------------------------------------------------|

E|----------------------------------------------------|
B|----------------------------------------------------|
G|----------------------------------------------------|
D|--15-----15-----15-------15--15-----15--------------|
A|-----13-----12-----12h13--------13-----13-12--------|
D|----------------------------------------------------|

E|----------------------------------------------------|
B|----------------------------------------------------|
G|----------------------------------------------------|
D|--15-------15-------15-------15-------15------------|
A|-----13-12----13-12----13-12----13-12----13-12------|
D|----------------------------------------------------|

3rd Chorus(Guitar 1)(distortion and flanger)

E|----------------------------------------------------|
B|----------------------------------------------------|
G|----------------------------------------------------|
D|--------------------------15------------------------|
A|--12vvvv-12-12-12-0-12h13----12-10vvvv-10-10-10-10--|
D|----------------------------------------------------|

E|----------------------------------------------------|
B|----------------------------------------------------|
G|----------------------------------------------------|
D|--------------------------------------------15------|
A|--10-10-10-10-10-10vvvv-10-10-10-10-0-12h13----13---|
D|----------------------------------------------------|

E|----------------------------------------------------|
B|----------------------------------------------------|
G|----------------------------------------------------|
D|-----------------------------15---------------------|
A|--12vvvv-12-12-12-12-0-12h13-------12---------------|
D|----------------------------------------------------|

3rd Chorus(Guitar 2)(distortion)

E|----------------------------------------------------|
B|----------------------------------------------------|
G|----5-5-5-5-5-5-5-4-4-4-4-4-4-4-3-3-3-3-3-3-3-3-----|
D|----3-3-3-3-3-3-3-2-2-2-2-2-2-2-1-1-1-1-1-1-1-1-----|
A|--3-3-3-3-3-3-3-3-2-2-2-2-2-2-2-1-1-1-1-1-1-1-1-----|
D|--3-3-3-3-3-3-3-3-2-2-2-2-2-2-2-1-1-1-1-1-1-1-1-----|

E|---------------------------------|------------------|
B|----------3-3-3-3-3-3-3-3-3-3-3--|------------------|
G|--3-3-3-3-2-2-2-2-2-2-2-2-2-2-2--|------------------|
D|--1-1-1-1-0-0-0-0-0-0-0-0-0-0-0--|------0-----------|
A|--1-1-1-1-0-0-0-0-0-0-0-0-0-0-0--|------0-----------|
D|--1-1-1-1-0-0-0-0-0-0-0-0-0-0-0--|------0-----------|
                                    end with this^^^^^
There you go. Have fun.


Текст, аккорды и табулатура для песни "My Own Prison", исполняет "Creed".
Используемые в песне аккорды можно найти в разделе Как брать аккорды. Аккорды для шестиструнной гитары. Другие песни можно найти на нашем сайте, воспользовавшись алфавитным указателем вверху страницы.


Слушать онлайн My Own Prison


CreedMy Own Prison на Яндекс.Музыке


 
Ошибка в тексте? Выделите ошибку и нажмите Ctrl+Enter