Tuning - Drop D (D, A, D, G, B, E)

   
Verse
e----------------------------------|------------------------------------|
b----------------------------------|------------------------------------|
g----7--6---6--9---4---------------|---7--6---/9--7---/4-----9----------|
d---------------------7--7--0------|----------------------7------0------|
a------------------------------0---|-----------0--------------------0---|
d----9------7------5-----0---------|---9---------------5-----0----------|

Chorus
e----------------------------------------|-------------------------------|
b----------------------------------------|-------------------------------|
g----0------4--2-------------------------|---0------4--2---7--6---6--4---|
d-------4----------4---------4h5--4------|------4------------------------|
a-----------2---------0--------------0---|----------2------5------4------|
d----5-------------------0---------------|---5---------------------------|
                                                           
  |-------------------------------|
or|-----------------3--2---2--0---|
  |---0------4--2-----------------|
  |------4------------------------|
  |----------2------5------4------|
  |---5---------------------------|                                                          
                                                           
e-------------------------------|---2--3---------|	|----------------|
b-----------------7--6---6--4---|---------2--3---|	|----------------|
g---0------4--2-----------------|----------------|  or	|--11-12--6--7---|
d------4------------------------|----------------|	|----------------|
a----------2------5------4------|---5-----2------|	|----------------|
d---5---------------------------|----------------|	|--12-----9------|

e----------------------------------------|
b----------------------------------------|
g----0------4--2-------------------------|
d-------4----------4---------4h5--4------|
a-----------2---------0--------------0---|
d----5-------------------0---------------|

e----------------------------------------|----------------------------------------|
b----------------------------------------|----------------------------------------|
g----0------4--2-------------------------|----0------4--2-------------------------|
d-------4----------4---------4h5--4------|-------4----------4---------4h5--4------|
a-----------2---------0--------------0---|-----------2---------0--------------0---|
d----5-------------------0---------------|----5-------------------0---------------|

e-------------------------|
b-------------------------|
g-------------------------|
d---4/5--4----------------|
a-----------0--/4--5--0---|
d-------------------------|

Verse
e----------------------------------|------------------------------------|
b----------------------------------|------------------------------------|
g----7--6---6--9---4---------------|---7--6---/9--7---/4-----9----------|
d---------------------7--7--0------|----------------------7------0------|
a------------------------------0---|-----------0--------------------0---|
d----9------7------5-----0---------|---9---------------5-----0----------|

Chorus
e----------------------------------------|-------------------------------|
b----------------------------------------|-----------------7--6---6--4---|
g----0------4--2-------------------------|---0------4--2-----------------|
d-------4----------4---------4h5--4------|------4------------------------|
a-----------2---------0--------------0---|----------2------5------4------|
d----5-------------------0---------------|---5---------------------------|

  |-------------------------------|
or|-----------------3--2---2--0---|
  |---0------4--2-----------------|
  |------4------------------------|
  |----------2------5------4------|
  |---5---------------------------|


e-------------------------------|---2--3---------|      |----------------|
b-----------------7--6---6--4---|---------2--3---|      |----------------|
g---0------4--2-----------------|----------------|  or  |--11-12--6--7---| 
d------4------------------------|----------------|      |----------------|
a----------2------5------4------|---5-----2------|      |----------------|
d---5---------------------------|----------------|      |--12-----9------|


e----------------------------------------|
b----------------------------------------|
g----0------4--2-------------------------|
d-------4----------4---------4h5--4------|
a-----------2---------0--------------0---|
d----5-------------------0---------------|

e----------------------------------------|----------------------------------------|
b----------------------------------------|----------------------------------------|
g----0------4--2-------------------------|----0------4--2-------------------------|
d-------4----------4---------4h5--/7-----|-------4----------4---------4h5--4------|
a-----------2---------0---------------0--|-----------2---------0--------------0---|
d----5-------------------0---------------|----5-------------------0---------------|

e----------------------------------------|----------------------------------------|
b----------------------------------------|----------------------------------------|
g----0------4--2-------------------------|----0------4--2-------------------------|
d-------4----------4---------4h5--4------|-------4----------4---------4h5--/7-----|
a-----------2---------0--------------0---|-----------2---------0--------------0---|
d----5-------------------0---------------|----5-------------------0---------------|

e----------------------------------------|----------------------------------------|
b----------------------------------------|----------------------------------------|
g----0------4--2-------------------------|----0------4--2-------------------------|
d-------4----------4---------4h5--4------|-------4----------4---------4h5--4------|
a-----------2---------0--------------0---|-----------2---------0--------------0---|
d----5-------------------0---------------|----5-------------------0---------------|
                                                    ~quiet~
e----------------------------------------|----------------------------|
b----------------------------------------|----------------------------|
g----0------4--2-------------------------|----0------4--2-------------|
d-------4----------4---------4h5--/7-----|-------4----------4---------|
a-----------2---------0---------------0--|-----------2---------0------|
d----5-------------------0---------------|----5-------------------0---|

e----------------------------|
b----------------------------|
g----------------------------|
d---4/5--4---------------0---|
a-----------0--/4--5--0------|
d----------------------------|

Close to the End 2nd Guitar Plays this
e--------------|
b---7h8--7-----|
g----------7---|
d--------------|
a--------------|
d--------------|


Even Closer to the End 3rd guitar plays this on a loop
e---14h15--14-------|
b--------------15---|
g-------------------|
d-------------------|
a-------------------|
d-------------------|

 Any comments about the Tab send to [email protected]


Текст, аккорды и табулатура для песни "Lullaby", исполняет "Creed".
Используемые в песне аккорды можно найти в разделе Как брать аккорды. Аккорды для шестиструнной гитары. Другие песни можно найти на нашем сайте, воспользовавшись алфавитным указателем вверху страницы.


Слушать онлайн Lullaby


CreedLullaby на Яндекс.Музыке


 
Ошибка в тексте? Выделите ошибку и нажмите Ctrl+Enter