Song: Higher
Album: Human Clay
Band: Creed
Tabbed :Fernando Delgado

Intro:(Clean)
E-|----------------------------------------------------------------------------------|
B-|----------------------------------------------------------------------------------|
G-|--7-7--7-7-9-9-9/11-11-9-11-11/12-9-9-9-9-11-11-9-9-11-97-7-7-9-9-7-7-7-7-7------|
D-|--0-0--0-0-0-0-0----0--0-0--0-----0-0-7-7-7--7--7-7-7--75-5-5-5-5-5-5-5-5-5-0-0--|
A-|--0-0--0-0-0-0-0----0--0-0--0-----0-0-7-7-7--7--7-7-7--75-5-5-5-5-5-5-5-5-5-0-0--|
D-|--0-0--0-0-0-0-0----0--0-0--0-----0-0-7-7-7--7--7-7-7--75-5-5-5-5-5-5-5-5-5-0-0--|

			   (Distortion)
E-|-----------------------||--------------------------------------------------------|
B-|-----------------------||--------------------------------------------------------|
G-|--12--11--11-11-97-7--||--7-7--7-7-9-9-9/11-11-9-11-11/12-9-9-11-11-9-9-11-97--|
D-|--0---0---0--0--0---0--||--0-0--0-0-0-0-0----0--0-0--0-----7-7-7--7--7-7-7--75--|
A-|--0---0---0--0--0---0--||--0-0--0-0-0-0-0----0--0-0--0-----7-7-7--7--7-7-7--75--|
D-|--0---0---0--0--0---0--||--0-0--0-0-0-0-0----0--0-0--0-----7-7-7--7--7-7-7--75--|

E-|----------------------------------------------------|
B-|-----------------------------------------------3-3--|
G-|--7-7-9-9-7-7-7-7-7----------------------------2-2--|
D-|--5-5-5-5-5-5-5-5-5-0-0-5-0--0-0-5-0--0-0-5-0--0-0--|
A-|--5-5-5-5-5-5-5-5-5-0-0-5-0--0-0-5-0--0-0-5-0--0-0--|
D-|--5-5-5-5-5-5-5-5-5-0-0-5-0--0-0-5-0--0-0-5-0--0-0--|
		       P.M._ _ _ _ _ _ _ _ _ _ _ _ _.

Verse:(Clean)
E-|---------------------------------------------------------------------------|
B-|--3---3--3-3-3-3--3--3-3--9---9--9-9-9--9-9-9-9--3---3--3------------------|
G-|--2---2--2-2-2-2--2--2-2--7---7--7-7-7--7-7-7-7--2---2--2------------------|
D-|--0---0--0-0-0-0--0--0-0--5---5--5-5-5--5-5-5-5--0---0--0--0---------------|
A-|--0---0--0-0-0-0--0--0-0--5---5--5-5-5--5-5-5-5--0---0--0--0--4/5-----4/5--|
D-|--0---0--0-0-0-0--0--0-0--5---5--5-5-5--5-5-5-5--0---0--0--0---------------|

E-|-----------------------------------------------------------0---------------|
B-|--------------------------3---3--3---------------------------0-------------|
G-|--7---7--7-7-7--7--7-7-7--2---2--2-----------------7--7--------7--7-7-7-7--|
D-|--5---5--5-5-5--7--7-7-7--0---0--0-0---------------7--7--7--------7-7-7-7--|
A-|--5---5--5-5-5--5--5-5-5--0---0--0-0--4/5-----4/5--5--5-----------5-5-5-5--|
D-|--5---5--5-5-5--5--5-5-5--0---0--0-0---------------5--5-----------5-5-5-5--|

E-|----------------------------------------------------|
B-|--3---3--3------------------------------------------|
G-|--2---2--2------------------7---7--7-7-7--7--7-7-7--|
D-|--0---0--0--0---------------7---7--7-7-7--7--7-7-7--|
A-|--0---0--0--0--4/5-----4/5--5---5--5-5-5--5--5-5-5--|
D-|--0---0--0--0---------------5---5--5-5-5--5--5-5-5--|

E-|----------------------------------------------------|
B-|--3---3--3------------------------------------------|
G-|--2---2--2------------------7---7--7-7-7--7--7-7-7--|
D-|--0---0--0--0---------------7---7--7-7-7--7--7-7-7--|
A-|--0---0--0--0--4/5-----4/5--5---5--5-5-5--5--5-5-5--|
D-|--0---0--0--0---------------5---5--5-5-5--5--5-5-5--|

E-|----------------------------------------------------|
B-|--3---3--3------------------------------------------|
G-|--2---2--2------------------7---7--7-7-7--7--7-7-7--|
D-|--0---0--0--0---------------7---7--7-7-7--7--7-7-7--|
A-|--0---0--0--0--4/5-----4/5--5---5--5-5-5--5--5-5-5--|
D-|--0---0--0--0---------------5---5--5-5-5--5--5-5-5--|

Pre-Chorus(Distortion)
E-|-------------------------------------------------------------------|
B-|-------------------------------------------------------------------|
G-|-------------------------------------------------------------------|
D-|--4-4-4-4-4-4-4-4-4-4-4-4-4-4-4-4-5-5-5-5-5-5-5-5-5-5-5-5-5-5-5-5--|
A-|--4-4-4-4-4-4-4-4-4-4-4-4-4-4-4-4-5-5-5-5-5-5-5-5-5-5-5-5-5-5-5-5--|
D-|--4-4-4-4-4-4-4-4-4-4-4-4-4-4-4-4-5-5-5-5-5-5-5-5-5-5-5-5-5-5-5-5--|
    P.M.____________________________________________________________

E-|-----------------------------------------------------------------------|
B-|------------------------------------------8---8/20-20-20-20-20-20--20--|
G-|------------------------------------------7---7/19-19-19-19-19-19--19--|
D-|--4-4-4-4-4-4-4-4-4-4-4-4-4-4-4-4-5-5-5-5-5---5/17-17-17-17-17-17--17--|
A-|--4-4-4-4-4-4-4-4-4-4-4-4-4-4-4-4-5-5-5-5-5---5/17-17-17-17-17-17--17--|
D-|--4-4-4-4-4-4-4-4-4-4-4-4-4-4-4-4-5-5-5-5-5---5/17-17-17-17-17-17--17--|
    P.M.___________________________________|

Chorus: (Distortion)
E-|------------------------------------------------------------|
B-|--3--3-3--2--2--------------------3-3--3-3---2-3-5-3-2-3----|
G-|--2--2-2--2--2-2-2-----7--7-------2-2--2-2-0----------------|
D-|--0--0-0--0--0-0-0-----5--5-4-4-4-0-0--0-0-0-------------0--|
A-|----------4--4-5-4--0--5--5-4-4-4-0-0--0-0---------------0--|
D-|--0--0-0---------------5--5-4-4-4-0-0--0-0---------------0--|

E-|-----------------------------------------------------|
B-|--3--3-3--2--2--------------------3-3--3-3-----------|
G-|--2--2-2--2--2-2-2-----7--7-------2-2--2-2-0---------|
D-|--0--0-0--0--0-0-0-----5--5-4-4-4-0-0--0-0-0-4b---0--|
A-|----------4--4-5-4--0--5--5-4-4-4-0-0--0-0-----------|
D-|--0--0-0---------------5--5-4-4-4-0-0--0-0-----------|

E-|------------------------------------------------------------|
B-|--3--3-3--2--2--------------------3-3--3-3---2-3-5-3-2-3----|
G-|--2--2-2--2--2-2-2-----7--7-------2-2--2-2-0----------------|
D-|--0--0-0--0--0-0-0-----5--5-4-4-4-0-0--0-0-0-------------0--|
A-|--5--5-5--4--4-5-4--0--5--5-4-4-4-0-0--0-0---------------0--|
D-|--0--0-0---------------5--5-4-4-4-0-0--0-0---------------0--|

E-|---------------------------------------|
B-|--3--3-3--2--2--------------------3-3--|
G-|--2--2-2--2--2-2-2-----7--7-------2-2--|	Repeat Verse
D-|--0--0-0--0--0-0-0-----5--5-4-4-4-0-0--|	and Pre-Chorus
A-|--5--5-5--4--4-5-4--0--5--5-4-4-4-0-0--|	and Chorus
D-|--0--0-0---------------5--5-4-4-4-0-0--|

First Bridge: (Distortion)
E-|-------------------------------------------------------------------|
B-|-------------------------------------------------------------------|
G-|-------------------------------------------------------------------|
D-|--4-4-4-4-4-4-4-4-4-4-4-4-4-4-4-4-5-5-5-5-5-5-5-5-5-5-5-5-5-5-5-5--|
A-|--4-4-4-4-4-4-4-4-4-4-4-4-4-4-4-4-5-5-5-5-5-5-5-5-5-5-5-5-5-5-5-5--|
D-|--4-4-4-4-4-4-4-4-4-4-4-4-4-4-4-4-5-5-5-5-5-5-5-5-5-5-5-5-5-5-5-5--|
    P.M.____________________________________________________________

E-|-----------------------------------------------------------------------|
B-|------------------------------------------8---8/20-20-20-20-20-20--20--|
G-|------------------------------------------7---7/19-19-19-19-19-19--19--|
D-|--4-4-4-4-4-4-4-4-4-4-4-4-4-4-4-4-5-5-5-5-5---5/17-17-17-17-17-17--17--|
A-|--4-4-4-4-4-4-4-4-4-4-4-4-4-4-4-4-5-5-5-5-5---5/17-17-17-17-17-17--17--|
D-|--4-4-4-4-4-4-4-4-4-4-4-4-4-4-4-4-5-5-5-5-5---5/17-17-17-17-17-17--17--|
    P.M.___________________________________|

Solo:(Distortion)
E-|--------------------------------------------------------|
B-|--------------------------------------------------------|
G-|--7-7--7-7-9-9-9/11-11-9-11-11/12-9-9-11-11-9-9-11-97--|
D-|--0-0--0-0-0-0-0----0--0-0--0-----7-7-7--7--7-7-7--75--|
A-|--0-0--0-0-0-0-0----0--0-0--0-----7-7-7--7--7-7-7--75--|
D-|--0-0--0-0-0-0-0----0--0-0--0-----7-7-7--7--7-7-7--75--|

E-|----------------------------------------------------|
B-|-----------------------------------------------3-3--|
G-|--7-7-9-9-7-7-7-7-7----------------------------2-2--|
D-|--5-5-5-5-5-5-5-5-5-0-0-5-0--0-0-5-0--0-0-5-0--0-0--|
A-|--5-5-5-5-5-5-5-5-5-0-0-5-0--0-0-5-0--0-0-5-0--0-0--|
D-|--5-5-5-5-5-5-5-5-5-0-0-5-0--0-0-5-0--0-0-5-0--0-0--|
		       p.m._____________________|

Second Bridge(Distortion)
E-|--------------------------------------------------------------|
B-|--3--3--3--3-3--2-2-2-2-2-2--11---11--11--11--11--11--11--11--|
G-|--2--2--2--2-2--2-2-2-2-2-2--9----9---9---9---9---9---9---9---|
D-|--0--0--0--0-0--0-0-0-0-0-0--7----7---7---7---7---7---7---7---|
A-|--0--0--0--0-0--0-0-0-0-0-0--7----7---7---7---7---7---7---7---|
D-|--0--0--0--0-0--0-0-0-0-0-0--7----7---7---7---7---7---7---7---|

E-|---------------------------------------------------------|
B-|---------------------------------------------------------|
G-|---------------------------------------------------------|
D-|--5---5--5--5-5--5--5-5-5-5-0-0-5-0--0-0-5-0--0-0-5-0-0--|
A-|--5---5--5--5-5--5--5-5-5-5-0-0-5-0--0-0-5-0--0-0-5-0-0--|
D-|--5---5--5--5-5--5--5-5-5-5-0-0-5-0--0-0-5-0--0-0-5-0-0--|

E-|------------------------------------------------------------------------------|
B-|------------------------------------------------------------------------------|
G-|--7-7--7-7-9-9-9/11-11-9-11-11/12-9-9-9-9-11-11-9-9-11-97-7-7-9-9-7-7-7-7-7--|
D-|--0-0--0-0-0-0-0----0--0-0--0-----0-0-7-7-7--7--7-7-7--75-5-5-5-5-5-5-5-5-5--|
A-|--0-0--0-0-0-0-0----0--0-0--0-----0-0-7-7-7--7--7-7-7--75-5-5-5-5-5-5-5-5-5--|
D-|--0-0--0-0-0-0-0----0--0-0--0-----0-0-7-7-7--7--7-7-7--75-5-5-5-5-5-5-5-5-5--|

E-|------------------------------|
B-|------------------------------|
G-|-----12-11-11-----12-11----7--|
D-|------x--x--x------x--x----x--|
A-|-----10--9--9-----10--9----5--|
D-|--0-----------0-0-------0-----|

(Clean)
E-|----------------------------------------------------------------------------------|
B-|----------------------------------------------------------------------------------|
G-|--7-7--7-7-9-9-9/11-11-9-11-11/12-9-9-9-9-11-11-9-9-11-97-7-7-9-9-7-7-7-7-7------|
D-|--0-0--0-0-0-0-0----0--0-0--0-----0-0-7-7-7--7--7-7-7--75-5-5-5-5-5-5-5-5-5-0-0--|
A-|--0-0--0-0-0-0-0----0--0-0--0-----0-0-7-7-7--7--7-7-7--75-5-5-5-5-5-5-5-5-5-0-0--|
D-|--0-0--0-0-0-0-0----0--0-0--0-----0-0-7-7-7--7--7-7-7--75-5-5-5-5-5-5-5-5-5-0-0--|

E-|-----------------------||--------------------------------------------------------|
B-|-----------------------||--------------------------------------------------------|
G-|--12--11--11-11-97-7--||--7-7--7-7-9-9-9/11-11-9-11-11/12-9-9-11-11-9-9-11-97--|
D-|--0---0---0--0--0---0--||--0-0--0-0-0-0-0----0--0-0--0-----7-7-7--7--7-7-7--75--|
A-|--0---0---0--0--0---0--||--0-0--0-0-0-0-0----0--0-0--0-----7-7-7--7--7-7-7--75--|
D-|--0---0---0--0--0---0--||--0-0--0-0-0-0-0----0--0-0--0-----7-7-7--7--7-7-7--75--|

                       (Distortion)
E-|----------------------------------------------------|
B-|-----------------------------------------------3-3--|
G-|--7-7-9-9-7-7-7-7-7----------------------------2-2--|
D-|--5-5-5-5-5-5-5-5-5-0-0-5-0--0-0-5-0--0-0-5-0--0-0--|
A-|--5-5-5-5-5-5-5-5-5-0-0-5-0--0-0-5-0--0-0-5-0--0-0--|
D-|--5-5-5-5-5-5-5-5-5-0-0-5-0--0-0-5-0--0-0-5-0--0-0--|
		       p.m._____________________|


After that Repeat the Chorus twice fully through, and then Three more times just
the first half.  THANKS. And ENJOY and Have Fun.




Текст, аккорды и табулатура для песни "Higher", исполняет "Creed".
Используемые в песне аккорды можно найти в разделе Как брать аккорды. Аккорды для шестиструнной гитары. Другие песни можно найти на нашем сайте, воспользовавшись алфавитным указателем вверху страницы.


Слушать онлайн Higher


CreedHigher на Яндекс.Музыке


 
Ошибка в тексте? Выделите ошибку и нажмите Ctrl+Enter