Person: Jason Hobbes

song: Higher

artist: Creed

tab: Intro: -(Clean)
E-|----------------------------------------------------------------------------------|
B-|----------------------------------------------------------------------------------|
G-|--7-7--7-7-9-9-9/11-11-9-11-11/12-9-9-9-9-11-11-9-9-11-97-7-7-9-9-7-7-7-7-7------|
D-|--0-0--0-0-0-0-0----0--0-0--0-----0-0-7-7-7--7--7-7-7--75-5-5-5-5-5-5-5-5-5-0-0--|
A-|--0-0--0-0-0-0-0----0--0-0--0-----0-0-7-7-7--7--7-7-7--75-5-5-5-5-5-5-5-5-5-0-0--|
D-|--0-0--0-0-0-0-0----0--0-0--0-----0-0-7-7-7--7--7-7-7--75-5-5-5-5-5-5-5-5-5-0-0--|

                           (Distortion)
E-|-----------------------||--------------------------------------------------------|
B-|-----------------------||--------------------------------------------------------|
G-|--12--11--11-11-97-7--||--7-7--7-7-9-9-9/11-11-9-11-11/12-9-9-11-11-9-9-11-97--|
D-|--0---0---0--0--0---0--||--0-0--0-0-0-0-0----0--0-0--0-----7-7-7--7--7-7-7--75--|
A-|--0---0---0--0--0---0--||--0-0--0-0-0-0-0----0--0-0--0-----7-7-7--7--7-7-7--75--|
D-|--0---0---0--0--0---0--||--0-0--0-0-0-0-0----0--0-0--0-----7-7-7--7--7-7-7--75--|

E-|----------------------------------------------------|
B-|-----------------------------------------------3-3--|
G-|-----------------------------------------------2-2--|
D-|--5-5-5-5-5-5-5-5-5-0-0-5-0--0-0-5-0--0-0-5-0--0-0--|
A-|--5-5-5-5-5-5-5-5-5-0-0-5-0--0-0-5-0--0-0-5-0--0-0--|
D-|--5-5-5-5-5-5-5-5-5-0-0-5-0--0-0-5-0--0-0-5-0--0-0--|
End of Intro           p.m._____________________|

Verse:(Clean)
E-|-----------------------------------------------------------------------------------|
B-|--3---3--3-3-3-3--3--3-3------------9---9--9-9-9--9-9-9-9--3---3--3----------------|
G-|--2---2--2-2-2-2--2--2-2------------7---7--7-7-7--7-7-7-7--2---2--2----------------|
D-|--0---0--0-0-0-0--0--0-0------------5---5--5-5-5--5-5-5-5--0---0--0--0-------------|
A-|--0---0--0-0-0-0--0--0-0-4/5---4/5--5---5--5-5-5--5-5-5-5--0---0--0--0--4/5---4/5--|
D-|--0---0--0-0-0-0--0--0-0------------5---5--5-5-5--5-5-5-5--0---0--0--0-------------|

E-|-----------------------------------------------------------0---------------|
B-|--------------------------3---3--3---------------------------0-------------|
G-|--7---7--7-7-7--7--7-7-7--2---2--2-----------------7--7--------7--7-7-7-7--|
D-|--5---5--5-5-5--7--7-7-7--0---0--0-0---------------7--7--7--------7-7-7-7--|
A-|--5---5--5-5-5--5--5-5-5--0---0--0-0--4/5-----4/5--5--5-----------5-5-5-5--|
D-|--5---5--5-5-5--5--5-5-5--0---0--0-0---------------5--5-----------5-5-5-5--|

Play this 3 times:
E-|----------------------------------------------------|
B-|--3---3--3------------------------------------------|
G-|--2---2--2------------------7---7--7-7-7--7--7-7-7--|
D-|--0---0--0--0---------------7---7--7-7-7--7--7-7-7--|
A-|--0---0--0--0--4/5-----4/5--5---5--5-5-5--5--5-5-5--|
D-|--0---0--0--0---------------5---5--5-5-5--5--5-5-5--|
End of Verse

Pre-Chorus(Distortion)
E-|-------------------------------------------------------------------|
B-|-------------------------------------------------------------------|
G-|-------------------------------------------------------------------|
D-|--4-4-4-4-4-4-4-4-4-4-4-4-4-4-4-4-5-5-5-5-5-5-5-5-5-5-5-5-5-5-5-5--|
A-|--4-4-4-4-4-4-4-4-4-4-4-4-4-4-4-4-5-5-5-5-5-5-5-5-5-5-5-5-5-5-5-5--|
D-|--4-4-4-4-4-4-4-4-4-4-4-4-4-4-4-4-5-5-5-5-5-5-5-5-5-5-5-5-5-5-5-5--|
    P.M.____________________________________________________________




E-|-----------------------------------------------------------------------|
B-|------------------------------------------8---8/20-20-20-20-20-20--20--|
G-|------------------------------------------7---7/19-19-19-19-19-19--19--|
D-|--4-4-4-4-4-4-4-4-4-4-4-4-4-4-4-4-5-5-5-5-5---5/17-17-17-17-17-17--17--|
A-|--4-4-4-4-4-4-4-4-4-4-4-4-4-4-4-4-5-5-5-5-5---5/17-17-17-17-17-17--17--|
D-|--4-4-4-4-4-4-4-4-4-4-4-4-4-4-4-4-5-5-5-5-5---5/17-17-17-17-17-17--17--|
    P.M.___________________________________|
End of Pre-Chorus

Chorus: (Distortion)
E-|-------------------------------------------------------|
B-|--3--3-3--2--2-2-3-----8-------------------------------|
G-|--2--2-2--2--2-2-2-----7---------------6-7-9p7p6h7-----|
D-|--0--0-0--0--0-0-0-----5--4--0-0--0-0---------------0--|
A-|--0--0-0--0--0-0-0-----5--4--0-0--0-0---------------0--|
D-|--0--0-0---------0-----5--4--0-0--0-0---------------0--|

E-|------------------------------------------------|
B-|--3--3-3--2--2-2-3------------------------------|
G-|--2--2-2--2--2-2-2-----7------------------------|
D-|--0--0-0--0--0-0-0-----5--4--0-0--0-0---4b---0--|
A-|--0--0-0--0--0-0-0-----5--4--0-0--0-0-----------|
D-|--0--0-0---------0-----5--4--0-0--0-0-----------|

E-|-------------------------------------------------------|
B-|--3--3-3--2--2-2-3-----8-------------------------------|
G-|--2--2-2--2--2-2-2-----7---------------6-7-9p7p6h7-----|
D-|--0--0-0--0--0-0-0-----5--4--0-0--0-0---------------0--|
A-|--0--0-0--0--0-0-0-----5--4--0-0--0-0---------------0--|
D-|--0--0-0---------0-----5--4--0-0--0-0---------------0--|

E-|---------------------------------------|
B-|--3--3-3--2--2-2-3-----8------------3--|
G-|--2--2-2--2--2-2-2-----7------------2--|
D-|--0--0-0--0--0-0-0-----5--4--0-0--0-0--|
A-|--0--0-0--0--0-0-0-----5--4--5-5--5-0--|
D-|--0--0-0---------0-----5--4--0-0--0-0--|
End of Chorus

Repeat Verse, Pre-Chorus, Chorus, and then Pre-Chorus again

Solo:(Distortion)
E-|--------------------------------------------------------|
B-|--------------------------------------------------------|
G-|--7-7--7-7-9-9-9/11-11-9-11-11/12-9-9-11-11-9-9-11-97--|
D-|--0-0--0-0-0-0-0----0--0-0--0-----7-7-7--7--7-7-7--75--|
A-|--0-0--0-0-0-0-0----0--0-0--0-----7-7-7--7--7-7-7--75--|
D-|--0-0--0-0-0-0-0----0--0-0--0-----7-7-7--7--7-7-7--75--|

E-|----------------------------------------------------|
B-|-----------------------------------------------3-3--|
G-|--7-7-9-9-7-7-7-7-7----------------------------2-2--|
D-|--5-5-5-5-5-5-5-5-5-0-0-5-0--0-0-5-0--0-0-5-0--0-0--|
A-|--5-5-5-5-5-5-5-5-5-0-0-5-0--0-0-5-0--0-0-5-0--0-0--|
D-|--5-5-5-5-5-5-5-5-5-0-0-5-0--0-0-5-0--0-0-5-0--0-0--|
End of Solo            p.m._____________________|






Bridge 1: (Play this twice with distortion)
E-|--------------------------------------------------------------|
B-|--------------------------------------------------------------|
G-|--------------------------------------------------------------|
D-|--0--0--0--0-0--0-0-0-0-0-0--7----7---7---7---7---7---7---7---|
A-|--0--0--0--0-0--0-0-0-0-0-0--7----7---7---7---7---7---7---7---|
D-|--0--0--0--0-0--0-0-0-0-0-0--7----7---7---7---7---7---7---7---|

E-|---------------------------------------------------------|
B-|---------------------------------------------------------|
G-|---------------------------------------------------------|
D-|--5---5--5--5-5--5--5-5-5-5-0-0-5-0--0-0-5-0--0-0-5-0-0--|
A-|--5---5--5--5-5--5--5-5-5-5-0-0-5-0--0-0-5-0--0-0-5-0-0--|
D-|--5---5--5--5-5--5--5-5-5-5-0-0-5-0--0-0-5-0--0-0-5-0-0--|
                              p.m.____________________|

Bridge 2: -(A clean electric plays this on the 2nd time through the
bridge.)
E-|------------------------------------------------------------------------------|
B-|------------------------------------------------------------------------------|
G-|--7-7--7-7-9-9-9/11-11-9-11-11/12-9-9-9-9-11-11-9-9-11-97-7-7-9-9-7-7-7-7-7--|
D-|--0-0--0-0-0-0-0----0--0-0--0-----0-0-7-7-7--7--7-7-7--75-5-5-5-5-5-5-5-5-5--|
A-|--0-0--0-0-0-0-0----0--0-0--0-----0-0-7-7-7--7--7-7-7--75-5-5-5-5-5-5-5-5-5--|
D-|--0-0--0-0-0-0-0----0--0-0--0-----0-0-7-7-7--7--7-7-7--75-5-5-5-5-5-5-5-5-5--|

E-|------------------------------|
B-|------------------------------|
G-|-----12-11-11-----12-11----7--|
D-|------x--x--x------x--x----x--|
A-|-----10--9--9-----10--9----5--|
D-|--0-----------0-0-------0-----|

(Clean)
E-|----------------------------------------------------------------------------------|
B-|----------------------------------------------------------------------------------|
G-|--7-7--7-7-9-9-9/11-11-9-11-11/12-9-9-9-9-11-11-9-9-11-97-7-7-9-9-7-7-7-7-7------|
D-|--0-0--0-0-0-0-0----0--0-0--0-----0-0-7-7-7--7--7-7-7--75-5-5-5-5-5-5-5-5-5-0-0--|
A-|--0-0--0-0-0-0-0----0--0-0--0-----0-0-7-7-7--7--7-7-7--75-5-5-5-5-5-5-5-5-5-0-0--|
D-|--0-0--0-0-0-0-0----0--0-0--0-----0-0-7-7-7--7--7-7-7--75-5-5-5-5-5-5-5-5-5-0-0--|

E-|-----------------------||--------------------------------------------------------|
B-|-----------------------||--------------------------------------------------------|
G-|--12--11--11-11-97-7--||--7-7--7-7-9-9-9/11-11-9-11-11/12-9-9-11-11-9-9-11-97--|
D-|--0---0---0--0--0---0--||--0-0--0-0-0-0-0----0--0-0--0-----7-7-7--7--7-7-7--75--|
A-|--0---0---0--0--0---0--||--0-0--0-0-0-0-0----0--0-0--0-----7-7-7--7--7-7-7--75--|
D-|--0---0---0--0--0---0--||--0-0--0-0-0-0-0----0--0-0--0-----7-7-7--7--7-7-7--75--|

                       (Distortion)
E-|----------------------------------------------------|
B-|-----------------------------------------------3-3--|
G-|--7-7-9-9-7-7-7-7-7----------------------------2-2--|
D-|--5-5-5-5-5-5-5-5-5-0-0-5-0--0-0-5-0--0-0-5-0--0-0--|
A-|--5-5-5-5-5-5-5-5-5-0-0-5-0--0-0-5-0--0-0-5-0--0-0--|
D-|--5-5-5-5-5-5-5-5-5-0-0-5-0--0-0-5-0--0-0-5-0--0-0--|
                       p.m._____________________|

REPEAT CHORUS 2X


Текст, аккорды и табулатура для песни "Higher", исполняет "Creed".
Используемые в песне аккорды можно найти в разделе Как брать аккорды. Аккорды для шестиструнной гитары. Другие песни можно найти на нашем сайте, воспользовавшись алфавитным указателем вверху страницы.


Слушать онлайн Higher


CreedHigher на Яндекс.Музыке


 
Ошибка в тексте? Выделите ошибку и нажмите Ctrl+Enter