artist: Creed
tab:Hide
Album: Weathered
tabber: Willy Prince

tuning: Open D (D,A,D,G,B,D)

The other guys tab was really off and I previously did this tab for another site so here it 
is the correct way.

intro FIG.1
D|--------------------------|--15---12*---|
B|----V---------V-----------|-------------|
G|----7-----7---7-----8-----|-------------|
D|--------------------------|-------------|
A|--5----5---------5--------|-------------|
D|--------------------------|-------------|
Play figure 1 twice then add the harmonic bit.

verse(00:23)
D|----------------------------------3----------------------
B|------------------------------------3--------------------
G|---------------------------3-----------------------------
D|--------7--8--7---------5-----5--------10-10-10-10h12-12-
A|-----5---------------3------------------8--8--8--8--8--8-
D|--5---------------3---------------------8--8--8--8--8--8-
palm mute when Scott starts singing|
|----------|
|----------|
|----------|The chords may not show exact strum pattern
|---12-12--|but you'll get it, just listen to the song.
|----8--8--|
|----8--8--|

chorus(00:56)
D|--------------------------------------------------------|
B|--------------------------------------------------------|
G|--3-3-3-3-3-3-3-----------------------------------------|
D|--3-3-3-3-3-3-3--5-5-5-5-5-5--3-3-3-3-3-3--1-1-1-1-1-1--|
A|--1-1-1-1-1-1-1--5-5-5-5-5-5--3-3-3-3-3-3--1-1-1-1-1-1--|
D|-----------------5-5-5-5-5-5--3-3-3-3-3-3--1-1-1-1-1-1--|
     2 measures     repeat verse under this, sounds good

D|------|
B|------|Let this ring at the end of every chorus till
G|--15--|verse.
D|---x--|
A|--13--|
D|------|

Repeat intro(02:28)with very little variation

outro
D|-----------|
B|-----------|
G|--3-3-3-3--|Keep strummin this or repeat intro.
D|--3-3-3-3--|
A|--1-1-1-1--|
D|-----------|


Текст, аккорды и табулатура для песни "Hide", исполняет "Creed".
Используемые в песне аккорды можно найти в разделе Как брать аккорды. Аккорды для шестиструнной гитары. Другие песни можно найти на нашем сайте, воспользовавшись алфавитным указателем вверху страницы.


Слушать онлайн Hide


CreedHide на Яндекс.Музыке


 
Ошибка в тексте? Выделите ошибку и нажмите Ctrl+Enter