*Note: Again, the text was wrapped on my screen, but you seemed to do a fine job 
fixing any problem with my last tab.*

Song: Hide
Artist: Creed
Album: Weathered
Tabbed by: Aarron Williams
Email- [email protected]

This is my second tab from the new Creed CD, Weathered.  I wasn’t as pressed to learn this 
song as I was with One Last Breath, so I didn’t spend a lot of time picking out all the 
muddled sounds.  The only parts that are questionable are the things I placed in parentheses 
“( )”  These are NOT ghost notes in this tab.  I am currently working on Stand Here with Me, 
which is track number 7 if I have the incorrect title.  If you would like to add to this tab, 
or help me out, e-mail me.  Enjoy.


E|-----------------------------|----------------------|
B|---2b3r----2--2b3r-----3-----|--17--14--------------|  These notes sound like harmonics
G|-----------------------------|----------------------|  on the CD, but I tabbed them out
D|-----------------------------|----------------------|  differently.
A|-0-------0-----------0-------|----------------------|
D|-----------------------------|----------------------|
Intro 2X w/o dist. 2X w/ dist.    

E|------------------------0-------0-0----------------|
B|--------------------------2-----0-0h3--------------|
G|----------------------------2---2-2-2--------------|
D|-----6-7------1h2p1-----------2-2-2----------------|
A|---4--------2-------------------0-0-0--------------|
D|-4--------2----------------------------------------|
Verse 2X then 1X with palm muting, then 2X again

E|----------------------------------0-------0---------|
B|------------------------------------2-----3---------|  Not too sure here, 
G|----(6h7-9)-----------------1-2------2--2-----------|  help would be appreciated
D|-7---------------6-7-6-------------------0----------|
A|-7-------------4----------2--------------0----------|
D|-7-----------4----------2----------------0----------|
1st Chorus (w/o dist)

E|-------------------------------------------------|
B|-------------------------------------------------|
G|-------------------------------------------------|
D|-7------7------4------2------------0-------------|
A|-7------7------4------2------------0-------------|
D|-7-----(6)------4------2--(2h4p2)--0-------------|
Other Chorus (w/ dist)


Текст, аккорды и табулатура для песни "Hide", исполняет "Creed".
Используемые в песне аккорды можно найти в разделе Как брать аккорды. Аккорды для шестиструнной гитары. Другие песни можно найти на нашем сайте, воспользовавшись алфавитным указателем вверху страницы.


Слушать онлайн Hide


CreedHide на Яндекс.Музыке


 
Ошибка в тексте? Выделите ошибку и нажмите Ctrl+Enter