Artist 	: Crazy Town
Song	: Think Fast
Album	: The Gift Of Game
Tabbed By: cxtbboy

Intro (0:00)
                    (x4)                   (x4)
G -----|----------------|-----|----------------|
D -----|----------------|-----|----------------|
A -----|----------------|-----|----------------|
E -----|----------------|-0-1-|----------------|
B -14-|-2--2-2--2--2-2-|-----|-2--2-2--2--2-2-|

Verse 1 (0:22)
                      (x7)                                              (x7)
G ------------------------|------------------------|------------------------|--------------|
D ------------------------|------------------------|------------------------|--------------|
A -4p3h4p3----------------|-4p3h4p3----------1-----|-4p3h4p3----------------|--------------|
E ------------------------|------------0--1--------|------------------------|--------------|
B ------------2-2--2--2-2-|------------------------|------------2-2--2--2-2-|-2--2--2--2--2|

Chorus (1:01)
                      (x3)                                              (x3)
G ------------------------|-----------------------|-----------------------|-------------------|
D ------------------------|-----------------------|-----------------------|-------------------|
A -4p3h4p3----------------|4p3h4p3--------------1-|4p3h4p3----------------|4p3h4p3------------|
E -----------------------0|-----------------0-1---|----------------------0|-------------------|
B ------------2--2--2--2--|-----------2--2--------|-----------2--2--2--2--|---------2--2--2--2|

Verse 2 (1:19)
                      (x4)                            (x3)
G ------------------------|------|------------------------|------------------------|
D ------------------------|------|------------------------|------------------------|
A ------------------------|------|------------------------|------------------------|
E ------------------------|------|------------------------|------------------------|
B -2~---------3~----------|-5--3-|-2~---------3~----------|-2~--------2--2--2--2--2|

Chorus (1:56)
                      (x3)                                              (x3)
G ------------------------|------------------------|------------------------|--------------|
D ------------------------|------------------------|------------------------|--------------|
A -4p3h4p3----------------|-4p3h4p3--------------1-|-4p3h4p3----------------|-4p3h4p3------|
E -----------------------0|------------------0-1---|-----------------------0|--------------|
B ------------2--2--2--2--|------------2--2--------|------------2--2--2--2--|------------2-|

Bass Solo (2:14)
                                                                    (x2)
G ----------9--11--11h13--11--9------11-----11----11-----11-----11---11-|----|
D -11~----------------------------8------8------8-----9------9-----9----|----|
A ----------------------------------------------------------------------|----|
E ----------------------------------------------------------------------|----|
B ----------------------------------------------------------------------|-2~-|

(2:41)
              (x4)                   (x4)
G ----------------|-----|----------------|
D ----------------|-----|----------------|
A ----------------|-----|----------------|
E ----------------|-0-1-|----------------|
B -2--2-2--2--2-2-|-----|-2--2-2--2--2-2-|

Verse 3 (3:02)
                      (x4)                            (x1)
G ------------------------|------|------------------------|------------------------|
D ------------------------|------|------------------------|------------------------|
A ------------------------|------|------------------------|------------------------|
E ------------------------|------|------------------------|------------------------|
B -2~---------3~----------|-5--3-|-2~---------3~----------|-2~--------2--2--2--2--2|

Chorus (3:31)
                      (x3)                                              (x3)
G ------------------------|------------------------|------------------------|---------------|
D ------------------------|------------------------|------------------------|---------------|
A -4p3h4p3----------------|-4p3h4p3--------------1-|-4p3h4p3----------------|---------------|
E -----------------------0|------------------0-1---|-----------------------0|---------------|
B ------------2--2--2--2--|------------2--2--------|------------2--2--2--2--|-2--2--2--2--2-|


Текст, аккорды и табулатура для песни "Think Fast", исполняет "Crazy Town".
Используемые в песне аккорды можно найти в разделе Как брать аккорды. Аккорды для шестиструнной гитары. Другие песни можно найти на нашем сайте, воспользовавшись алфавитным указателем вверху страницы.


Слушать онлайн Think Fast


Crazy TownThink Fast на Яндекс.Музыке


 
Ошибка в тексте? Выделите ошибку и нажмите Ctrl+Enter