ok, this is the latest song (that I know of) by Crazy Town, and I decided
to tab it cos those high pitch parts are quite nice to play

---------------------------------------------------------------------
---------------------------------------------------------------------
---------------------------------------------------------------------
-4-4-4-4-4-4-4-4--6-6-6-6-6-6-6-6--9-9-x-x-9-9-9-9--4-4-4-4-4-4-4-4--
-4-4-4-4-4-4-4-4--6-6-6-6-6-6-6-6--9-9-x-x-9-9-9-9--4-4-4-4-4-4-4-4--
-2-2-2-2-2-2-2-2--4-4-4-4-4-4-4-4--7-7-x-x-7-7-7-7--2-2-2-2-2-2-2-2--

not entirely sure whether this intro is totally right or not, I'm guessing they
play in Drop D or something to make it sound a bit heavier with the distortion,
but on the B (fret 7) there's something else going on, either a couple of muted
chords of a quick change back a fret, I think it sounds closer with a few muted
strings.
oh and it's just an estimation of how many times the bloke plays the chords, so
don't play exactly 8 strums on each, listen to the song and work out the pattern.

------------------------4---------------------------------------------
-4-5-4-5-4-5-4~-----4-5---5-4-5----------5-4-5-4-5-4~---------7~---4--
--------------------------------6~-----6------------------4~----------
----------------------------------------------------------------------
----------------------------------------------------------------------
----------------------------------------------------------------------

the 4 on the B string at the end is played to show the riff being repeated, the
times when the verse/chorus or whatever comes after you just end on the 7.

---4-------6---4-----4-----4--------------------
-------7-----------7-----------7---5---4--------
-6---6---6---6---6-------6---6---6---6---6-4-6--
------------------------------------------------
------------------------------------------------
------------------------------------------------
there's a bit just after this that I don't know, and can't really be
bothered to work out.      
                                                                        
ending
------------------
-5-4-5-4-5-4-5-4--
------------------
------------------
------------------
------------------

now wasn't that fun folks?!
Crazy Town music doesn't seem that hard is that was actually right.  quite a good
song to start on really, mixing a few chords with nice single notes, and gets you
to learn string skipping a little bit.
don't know why I said that, but feel free to leave comments, not exactly like
I'll be reading them right now.


Текст, аккорды и табулатура для песни "Drowning", исполняет "Crazy Town".
Используемые в песне аккорды можно найти в разделе Как брать аккорды. Аккорды для шестиструнной гитары. Другие песни можно найти на нашем сайте, воспользовавшись алфавитным указателем вверху страницы.


Слушать онлайн Drowning


Crazy TownDrowning на Яндекс.Музыке


 
Ошибка в тексте? Выделите ошибку и нажмите Ctrl+Enter