Transcribed by:Tyler Sartin

E ---------------10h12p10-------------------------
B ----10-----13-------------10---8---10-----------
G ----------------------------------------7-------
D ------------------------------------------------
A ------------------------------------------------
E ------------------------------------------------

thats about it
any questions, commments, email me at [email protected]

===========================================
2==========================================

--------10------12(14)------------------------------|
12--------------------------12----10--12------------|
-------------------------------------------9--------|
----------------------------------------------------|
----------------------------------------------------|
----------------------------------------------------|

===========================================
3==========================================
Crazy Town
--Butterfly--
Tabbed by Daemonite ([email protected])
Tunning: E A D G B E

|-----8--12--10h12p10--------------------|
|-10-------------------10--8--10---8-10~-|
---------------------7---------------|   
--------------------------------------|
--------------------------------------|
--------------------------------------|
This rift is played with Digital Delay and and some reverb

===========================================
4==========================================

e-5-8-8-10h12p10-5-3-5-0
G-----------------------
B-----------------------
D-----------------------
A-----------------------
E----------------------- 

===========================================
Butterfly
Tabbed By: [email protected]

Main Riff 

E-------------------------------
B----13----15h17p15-------------
G-14----14----------14-12-14----
D----------------------------12-
A-------------------------------
E-------------------------------

h=hammeron
p=pulloff


Текст, аккорды и табулатура для песни "Butterfly", исполняет "Crazy Town".
Используемые в песне аккорды можно найти в разделе Как брать аккорды. Аккорды для шестиструнной гитары. Другие песни можно найти на нашем сайте, воспользовавшись алфавитным указателем вверху страницы.


Слушать онлайн Butterfly


Crazy TownButterfly на Яндекс.Музыке


 
Ошибка в тексте? Выделите ошибку и нажмите Ctrl+Enter