Craig David - Rise and Fall

The riff is played throughout the whole song, except for the bridge. You can
play the riff in different positions. Also with a capo. Choose which one you play.

One Position:
e||-5-----5---4-----4---|-2-----2-----------|
b||---------------2-----|----(0)----7----6--|
G||*----6---------------|-----4--------4----|
D||*--4-----4---2-----2-|---0---------------|
A||---------------------|---------4---------|
E||---------------------|-------------------|

e|-5-----5---4-----4---|-2-----2-----------||
b|-----3---------2-----|----(0)----7----6--||
G|---------------------|-----4--------4---*||
D|---4-----4---2-----2-|---0--------------*||
A|---------------------|---------4---------||
E|---------------------|-------------------||

Another Position:
e||------------------------|-------------------|
b||-10------10---9-----9---|-7-----7---7----6--|
G||*-----6-----------6-----|-----4--------4----|
D||*----(11)---------------|-------------------|
A||----9-------7---7-----5-|---5-----4---------|
E||------------------------|-------------------|

e|------------------------|-------------------||
b|-10------10---9-----9---|-7-----7---7----6--||
G|------7-----------6-----|-----4--------4---*||
D|-----(12)---------------|------------------*||
A|----9-------7---7-----5-|---5-----4---------||
E|------------------------|-------------------||


During the Bridge the guitar plays riffs on chords on the background, I can hear
the guitar playing some notes together with the vocals, but I think you should
find your own way of playing in the background on these chords:

D		C#m7		Bm7		C#m7

D		C#m7		Bm7		Esus4

After the bridge, you play the main riff a half step (one fret) higher.


The song is like this:
Intro	(4x the riff; first 2 times are only guitar & background vocals)
Verse	(4x   “  )
Chorus (2x  “  )
Verse	(4x  “  )
Chorus (2x  “  )
Bridge
Outro (4x “ , then 2x only guitar & background vocals, ending on a Gm)


Текст, аккорды и табулатура для песни "Rise And Fall", исполняет "Craig David".
Используемые в песне аккорды можно найти в разделе Как брать аккорды. Аккорды для шестиструнной гитары. Другие песни можно найти на нашем сайте, воспользовавшись алфавитным указателем вверху страницы.


 
Ошибка в тексте? Выделите ошибку и нажмите Ctrl+Enter