Играется на distortion guitar
Solo:
4)-------8-----11-8---8-----|-------7-----10-7---7-----|               _
5)-----8---8--------8---8---|-----7---7--------7---7---|                |
6)-6-9-------9------------9-|-5-8-------8------------8-|                |
                                                                        >2x
3)---------10-------13-10----10-------|--------9------12-9---9------|   |
4)------10----10----------10----10----|------9---9---------9---9----|   |
5)-8-11----------11----------------11-|-7-10-------10------------10-|  _|

3)---------10---------------10-------|--------9-------------9------|
4)-8-10-11----11-10-8-10-11----11-10-|-7-9-10---10-9-7-9-10---10-9-|

1)--------8------------8-----|-------7-----------7-----|
2)----8-9---9-8----8-9---9-8-|---7-8---8-7---7-8---8-7-|
3)-10-----------10-----------|-9-----------9-----------|

3)---------10---------------10-------|--------9-------------9------|
4)-8-10-11----11-10-8-10-11----11-10-|-7-9-10---10-9-7-9-10---10-9-|

1)--------8------------8-----|-------7-----------7-----|
2)----8-9---9-8----8-9---9-8-|---7-8---8-7---7-8---8-7-|
3)-10-----------10-----------|-9-----------9-----------|

4)-------8-----11-8---8-----|-------7-----10-7---7-----|               
5)-----8---8--------8---8---|-----7---7--------7---7---|                
6)-6-9-------9------------9-|-5-8-------8------------8-|                
                                                                        
3)---------10-------13-10----10-------|--------9------12-9---9------|   
4)------10----10----------10----10----|------9---9---------9---9----|   
5)-8-11----------11----------------11-|-7-10-------10------------10-|  

4)-------8-----11-8---8-----|-------7-----10-7---7-----|               
5)-----8---8--------8---8---|-----7---7--------7---7---|                
6)-6-9-------9------------9-|-5-8-------8------------8-|                

3)---------10-------13-10----10--------|  
4)------10----10----------10----10-----| 
5)-8-11----------11----------------11-|----12sl.--|


3)---------------------------------0-0-0-0-0-0---------------------2-2-2-2-2-2-0-0-0-0-0-0---------|
4)-6-6-6-6-6-6-2-2-2-2-2-2-4-4-4-4-------------4-4-4-4-4-4-2-2-2-2-------------------------4-4-4-4-|
5)-------------------------------------------------------------------------------------------------|

3)-0-0-0-0-0-0-----------------------------------------------------0-0-0-0-0-0---------------------|
4)-------------4-4-4-4-4-4-2-2-2-2-4-4-4-4-4-4-2-2-2-2-2-2-4-4-4-4-------------4-4-4-4-4-4-2-2-2-2-|
5)-------------------------------------------------------------------------------------------------|

1)-----------------------------------|
2)-----------------------------------|
3)-0-0-0-0-0-0-----------------------|
4)--------------4-4-4-4-4-4-2-2-2-2--|

1)-2-2-2-2-2-2-0-0-0-0-0-0-2-2-2-2-3-3-3-3-3-3-2-2-2-2-2-2-0-0-0-0-5-5-5-5-5-5-3-3-3-3-3-3-2-2-2-2-|
2)-------------------------------------------------------------------------------------------------|

1)-3-3-3-3-3-3-2-2-2-2-2-2-0-0-0-0-2-2-2-2-2-2-0-0-0-0-0-0-2-2-2-2-3-3-3-3-3-3-2-2-2-2-2-2-0-0-0-0-|
2)-------------------------------------------------------------------------------------------------|

4)-------6-|-5-4-3---|-2-------|
5)-5-4-3-4-|-3-3-1-3-|-2-пауза-|
6)-3-2-1---|-------1-|-0-------|

3)-----9-----9-----9-----9-|-----7-----7-----7-----7-|-----5-----5-----4-----4-|  __
4)---9-----9-----9-----9---|---7-----7-----7-----7---|---5-----5-----4-----4---|    |
5)-7-----7-----7-----7-----|-7-----7-----7-----7-----|-3-----3-----2-----2-----|    |
                                                                                    |
3)-----2-----2-----2-----2-|-----9-----9-----9-----9-|-----7-----7-----7-----7-|    |
4)---2-----2-----2-----2---|---9-----9-----9-----9---|---7-----7-----7-----7---|    |
5)-0-----0-----0-----0-----|-7-----7-----7-----7-----|-9-----9-----9-----9-----|     >3x
                                                                                    |
3)-----5-----5-----4-----4-2--------------|                             |
4)---5-----5-----4-----4---|---2-----2-------5------3-|                             |
5)-3-----3-----2-----2-----|-0-----0-------5------3---|                             |
6)---------------------------3------1-----|                           __|

 к сожалению я не знаю как она играется дальше и  в начале.


Текст, аккорды и табулатура для песни "Scorched Earth Erotica", исполняет "Cradle Of Filth".
Используемые в песне аккорды можно найти в разделе Как брать аккорды. Аккорды для шестиструнной гитары. Другие песни можно найти на нашем сайте, воспользовавшись алфавитным указателем вверху страницы.


 
Ошибка в тексте? Выделите ошибку и нажмите Ctrl+Enter