Band:  Cradle OF Filth
Album: Midian
Song:  Saffron’s Curse

Copyright (c)  (RECORD LABEL) (YEAR)
Version 1.0 - (DATE)

Transcribed By: Doo Scott
Email:          [email protected]


Tunning E B G D A E

Riff 1 (Trim this whole riff)
|-------------------------------------------------------------------|
|-------------------------------------------------------------------|
|-------------------------------------------------------------------|
|-55555555444444447777777755555555-----------------5555555577777777-|
|----------------------------------666-666-666-666------------------|
|-------------------------------------------------------------------|

|-------------------------------------------------------------------|
|-------------------------------------------------------------------|
|-------------------------------------------------------------------|
|-4444444455555555--------------------------------------------------|
|-------------------------------------------------------------------|
|-------------------------------------------------------------------|

Riff 2     (Trim from the 00 00 on)
|-------------------------------------------------------------------|
|-------------------------------------------------------------------|
|-------------------------------------------------------------------|
|-7/9-7/9-----------------------------------------------------------|
|-5/7-5/7-------2222222233332222------------------------------------|
|---------00-00-----------------------------------------------------|

Riff 3 (This riff doesn’t come until you’ve played the other two riffs twice, 
then they’ll be the organ/keyboard)
|-------------------------------------------------------------------|
|-------------------------------------------------------------------|
|-4--432--1-3-------------------------------------------------------|
|-------------------------------------------------------------------|
|-------------------------------------------------------------------|
|-------------------------------------------------------------------|

Riff 4 (play this the fourth time instead of riff 3)
|-------------------------------------------------------------------|
|-------------------------------------------------------------------|
|-------------------------------------------------------------------|
|-4--2--1-3---------------------------------------------------------|
|-------------------------------------------------------------------|
|-------------------------------------------------------------------|

Riff 5
|-------------------------------------------------------------------|
|-------------------------------------------------------------------|
|-------------------------------------------------------------------|
|-44444444332222222211113333----------------------------------------|
|-------------------------------------------------------------------|
|-------------------------------------------------------------------|

Riff 6
|-------------------------------------------------------------------|
|-------------------------------------------------------------------|
|-------------------------------------------------------------------|
|-44444444222222221111111133333333----------------------------------|
|-------------------------------------------------------------------|
|-------------------------------------------------------------------|

Now you go back to the beginning. That’s it. Have fun Jamming to this song and 
any other Cradle of Filth songs you know.


Текст, аккорды и табулатура для песни "Saffrons Curse", исполняет "Cradle Of Filth".
Используемые в песне аккорды можно найти в разделе Как брать аккорды. Аккорды для шестиструнной гитары. Другие песни можно найти на нашем сайте, воспользовавшись алфавитным указателем вверху страницы.


 
Ошибка в тексте? Выделите ошибку и нажмите Ctrl+Enter