Of Mist and Midnight Skies
by Cradle of Filth


Riff 1                     
                           
x 4                        
                           
------------------------
------------------------
------------------------
-2---6---7--------------
-2---6---7---7v------6v-
-0---4---5--------------

x 1

-------
-------
-------
-7---5-
-7---5-
-5---3-

Riff 2

------------------------------------------------
------------------------------------------------
------------------------------------------------
------------------------------------------------
---------------------5--------------------------
-5-7-8---7-5-7---7-8-----8-7-8---7-5-7----5-4-5-

--------------------------------------------------------------
--------------------------------------------------------------
--------------------------------------------------------------
--------------------------------------------------------------
-8---8-7-5---5-7-8---7---7-5-------5-7----5---5---------------
-----------------------------8---8--------------8-7---4-5---3-

------------------------------------------------
------------------------------------------------
------------------------------------------------
------------------------------------------------
---------------------5--------------------------
-5-7-8---7-5-7---7-8-----8-7-8---7-5-7----5-4-5-

---------------------------------------------------------------
---------------------------------------------------------------
---------------------------------------------------------------
---------------------------------------------------------------
-8---8-7-5---5-7-8---7---7-5-------5-7----5---5----------------
-----------------------------8---8--------------8-7---4-5---5-

Riff 3

x 2

-----------------------------------
-----------------------------------
-----------------------------------
-2---7-6---7-6-8v--2---7-6---7-6---
-2-----------------2-------------5-
-0-----------------0---------------

x 2

|-----------------------------------------------|
|-----------------------------------------------|
|-----------------------------------------------|
|-2-2-2-2---7-6---7-6-8v--2-2-2-2---7-6---7-6---|
|-2-2-2-2-----------------2-2-2-2-------------5-|
|-0-0-0-0-----------------0-0-0-0---------------|
| ^ ^ ^ ^                 ^ ^ ^ ^               |
|-----------------------------------------------|
|-----------6-5---6-5-7-------------6-5---6-5---|
|---------------------------------------------7-|
|-2-2-2-2-----------------2-2-2-2---------------|
|-2-2-2-2-----------------2-2-2-2---------------|
|-0-0-0-0-----------------0-0-0-0---------------|
  ^ ^ ^ ^                 ^ ^ ^ ^
** Riff 1 **

Riff 4

-----------------------------------------
-----------------------------------------
-----------------------------------------
-----------------------------------------
-------------7---------------------------
-0-3h4-3-1-0---8-7-----------------------


Текст, аккорды и табулатура для песни "Of Mist And Midnight Skies", исполняет "Cradle Of Filth".
Используемые в песне аккорды можно найти в разделе Как брать аккорды. Аккорды для шестиструнной гитары. Другие песни можно найти на нашем сайте, воспользовавшись алфавитным указателем вверху страницы.


 
Ошибка в тексте? Выделите ошибку и нажмите Ctrl+Enter