Lord Abortion
-------------
By Cradle of filth
>From Midian


Music and lyrics by Cof
Tab by Khaon (Masquerade before) (28.12.2001 - 29.12.2001)
E-Mail: [email protected]

Notation:
.. = palm mute
th = thrill
v~ = vibrato with vibraslam
~ = vibrato with finger
h = hammer-on
 > = release
X = dump
t = tap
/ = slide up
 = slide down
= = Hold

Note:
Tune down one whole step!! (D,G,C,F,A,d)
This is wonderful song (like all Cof's songs) and it has nice riffs.
(10.2.2002)
I found some mistakes (Again!) from the original tab. So this is the
right one!

___________________________________________________

Keyboard intro


Riff 1 Cd time 0:50
Twice

|----------------------------------------------------------
|----------------------------------------------------------
|----------------------------------------------------------
|-7th--10th------8----7th--10th--8th--X-7th-10th------8----
|-7th--10th----7---7--7th--10th--8th--X-7th-10th----7---7--
|-5th--8th---6--------5th--8th---6th--X-5th-8th---6--------

-----------------|
-----------------|
-----------------|
-7th--10th--8th--|
-7th--10th--8th--|
-5th--8th---6th--|


Riff 2 Cd time 1:21
Twice

|----------------------------------------------------
|----------------------------------------------------
|----------------------------------------------------
|-----7------7-8-7-----7----------------7------7-8-7-
|-0-0----0-0------------------8-7-8-0-0----0-0-------
|------------------8-8----6-6------------------------

  . .    . .       . .    . .       . .    . .

------------------|
------------------|
------------------|
-----6------------|
------------7-6-7-|
-8-8----6-6-------|
. .    . .


Riff 3 Cd time 1:37
Eight times

|----------------------------|
|----------------------------|
|----------------------------|
|----------------------------|
|-----8------8------8--9--8--|
|-0-0-6--0-0-6--0-0-6--7--6--|


Riff 4 Cd time 1:54
Once

|-----------------------------------------------|
|-----------------------------------------------|
|-----------------------------------------------|
|------------------------10th--12th--13th--9th--|
|-9th--10th--11th--12th--8th---10th--11th--7th--|
|-7th--8th---9th---10th-------------------------|


Little fill Cd time 2:10

|---------|
|---------|
|---------|
|---------|
|-8-9-8-9-|
|-6-7-6-7-|
  . . . .


Riff 4 Cd time 2:11
Once

|-----------------------------------------------|
|-----------------------------------------------|
|-----------------------------------------------|
|------------------------10th--12th--13th--9th--|
|-9th--10th--11th--12th--8th---10th--11th--7th--|
|-7th--8th---9th---10th-------------------------|


Little dive Cd time 2:27


Riff 3 Cd time 2:28
Four times

|----------------------------|
|----------------------------|
|----------------------------|
|----------------------------|
|-----8------8------8--9--8--|
|-0-0-6--0-0-6--0-0-6--7--6--|


Riff 2 Cd time 2:36
Twice

|----------------------------------------------------
|----------------------------------------------------
|----------------------------------------------------
|-----7------7-8-7-----7----------------7------7-8-7-
|-0-0----0-0------------------8-7-8-0-0----0-0-------
|------------------8-8----6-6------------------------
  . .    . .       . .    . .       . .    . .

------------------|
------------------|
------------------|
-----6------------|
------------7-6-7-|
-8-8----6-6-------|
. .    . .



Riff 4 Cd time 2:52
Once

|---------------------------------------------|
|---------------------------------------------|
|---------------------------------------------|
|---------------------------------------------|
|-9th--10th--11th--12th--3th---5th--6th--2th--|
|-7th--8th---9th---10th--1th---3th--4th--0th--|



Riff 5 Cd time 3:09
Twice
                                                Guitar 1
|------------------------------------|--------------------------|
|------------------------------------|--------------------------|
|------------------------------------|-----101010109999---------|
|-9th--7/9/10th--12th--107/9=--2--3-|-7777------------10101010-|
|-7th--5/7/8th---10th--8-5/7=--4--5-|--------------------------|
|------------------------------------|--------------------------|

Guitar 2
|------------------|
|------------------|
|------------------|
|-7777777777777777-|
|------------------|
|------------------|

Riff 6 Cd time 3:25
Twice

|------------------------------------------------|
|------------------------------------------------|
|------------------------------------------------|
|------------------------------------------------|
|-7th-5/78th--5th--5/7/8-7th-2--4---------------|
|-5th-3/56th--3th--3/5/6-5th-0--2--5th-6th-4th--|

Riff 7a Cd time 3:40
Three times

|-------------------------|-------------------|
|-------------------------|-------------------|
|-------------------------|-------------------|
|-------------------------|-------------------|
|-------5-----7-----5-7-8-|Keyboard and vocals|
|-0-0-0-3-0-0-5-0-0-3-5-6-|-------------------|


Riff 7b Cd time 3:52
Once

|-------------------------|------------------|
|-------------------------|------------------|
|-------------------------|------------------|
|-------------------------|------------------|
|-------5-----7-----5-7-8-|-----88887777-----|
|-0-0-0-3-0-0-5-0-0-3-5-6-|-6666--------9999-|


Riff 8 Cd time 3:55
Four times

|----------------------------|
|----------------------------|
|----------------------------|
|-9th--8th-7th-10th--9th-8th-|
|-7th--6th-5th-8th---7th-6th-|
|----------------------------|



Riff 7c Cd time 4:26
Twice

|------------------------------------------------------------------
|------------------------------------------------------------------
|------------------------------------------------------------------
|-----------------------------66665555-----------------------------
|-------5-----7-----5-7-8-4444--------7777-------5-----7-----5-7-8-
|-0-0-0-3-0-0-5-0-0-3-5-6------------------0-0-0-3-0-0-5-0-0-3-5-6-

------------------|
------------------|
------------------|
------------------|
-----88887777-----|
-6666--------9999-|


Break for guitar Cd time 4:41


Riff 2 Cd time 5:43
Four times

|----------------------------------------------------
|----------------------------------------------------
|----------------------------------------------------
|-----7------7-8-7-----7----------------7------7-8-7-
|-0-0----0-0------------------8-7-8-0-0----0-0-------
|------------------8-8----6-6------------------------
  . .    . .       . .    . .       . .    . .

------------------|
------------------|
------------------|
-----6------------|
------------7-6-7-|
-8-8----6-6-------|
. .    . .


Riff 3 Cd time 6:15
Four times

|----------------------------|
|----------------------------|
|----------------------------|
|----------------------------|
|-----8------8------8--9--8--|
|-0-0-6--0-0-6--0-0-6--7--6--|


Riff 4 Cd time 6:31
Once

|-----------------------------------------------|
|-----------------------------------------------|
|-----------------------------------------------|
|------------------------10th--12th--13th--9th--|
|-9th--10th--11th--12th--8th---10th--11th--7th--|
|-7th--8th---9th---10th-------------------------|


End Cd time 6:47

|-------------------------------|
|-------------------------------|
|-------------------------------|
|-------------------------------|
|---8---8---8---8---8---8---8-2-|
|-0-6-0-6-0-6-0-6-0-6-0-6-0-6-0-|

Mail me, if you can find mistakes!


Текст, аккорды и табулатура для песни "Lord Abortion", исполняет "Cradle Of Filth".
Используемые в песне аккорды можно найти в разделе Как брать аккорды. Аккорды для шестиструнной гитары. Другие песни можно найти на нашем сайте, воспользовавшись алфавитным указателем вверху страницы.


 
Ошибка в тексте? Выделите ошибку и нажмите Ctrl+Enter