I havnt done much tabbing before but i think this is all correct.

Tuning- D A D G

*= LET RING
()= MUTED

RIFF 1
G|--------------------------------------------------
D|--------------------------------------------------
A|--------------------------------------------------
D|--0*------------4*------------3*------------2*---- 

RIFF 2
G|--------------------------------------------------
D|--------------------------------------------------
A|--------------------------------------------------
D|--5----5----3----3----(1)----(1)----(3)---(3)-----

RIFF 3
G|--------------------------------------------------
D|----------------------6---8--6--5-6-5-3-2-2-3-5---
A|--------------------------------------------------
D|--3----3----3----3--------------------------------

RIFF 4

G|--------------------------------------------------
D|--------------------------------------------------
A|---------------------1-----0--3--0----------------
D|--3----3----3----3------------------4-------------

RIFF 5
G|--------------------------------------------------
D|--2--4-5-4--2--4-5-4-----4-5-4-----4-5-4----------
A|----------------------2---------2-----------------
D|--------------------------------------------------

G|---------------------------------------------------
D|-----4-5-4-----4-5-4-----4-5-4--7--4-5-4-----------
A|--3---------3---------5----------------------------
D|---------------------------------------------------

RIFF 6
G|-------------------------------------
D|-------------------------------------
A|-------------------------------------
D|--8-8-7-7-5-5-7-7--8-8-7-7-5-5-7-7---



I WILL TAB THE BASS SOLO SEPERATLY
 ORDER:

RIFF 1 X2
RIFF 2 X2
RIFF 3 X1
RIFF 4 X1
RIFF 3 X1
RIFF 4 X1
RIFF 3 X4
RIFF 2 X4
RIFF 5 X4
RIFF 6 X4 
RIFF 1 X2 
BASS SOLO
RIFF 3 X4
RIFF 2 X6
RIFF 5 X3


Текст, аккорды и табулатура для песни "Her Ghost In The Fog", исполняет "Cradle Of Filth".
Используемые в песне аккорды можно найти в разделе Как брать аккорды. Аккорды для шестиструнной гитары. Другие песни можно найти на нашем сайте, воспользовавшись алфавитным указателем вверху страницы.


 
Ошибка в тексте? Выделите ошибку и нажмите Ctrl+Enter