Tuning D A D G

*= let note ring
()= since notes on normal D-string can also be played on the 
    

Riff A |0:20||x2| (after guitar does that long slide)
G----------------------------------------------------------
D------------------4~-------------3~-------------2~--------
A---3~-----------------------------------------------------
D----------------------------------------------------------

Riff B |0:50||x2| (remember you can play either the low or high)
G----------------------------------------------------------
D--------------(5-5)-(3-3)---------------------------------
A---5-5---3-3----------------------------------------------
D--------------(5-5)-(3-3)---------------------------------

Fill #1 |1:29||x1|
G----------------------------------------------------------
D----------------------------------------------------------
A---1*----0-3-0--------------------------------------------
D---------------4------------------------------------------

Riff C |1:31||x4|
G----------------------------------------------------------
D-------------------6-8-6-5-6-5----------------------------
A---5---5---5---5---------------8-7-7-7-8-----------------
D----------------------------------------------------------

Riff D (version 2:playing w/ guitar) |2:31||x4|
G----------------------------------------------------------
D---0-2-3-2-0-2-3-2---2-3-2---2-3-2----2-3-2----2-3-2------
A-------------------0-------0--------1--------1------------
D----------------------------------------------------------

RIff D (playing w/ guitar) cont.
G----------------------------------------------------------
D-----2-3-2-5-3-2-3----------------------------------------
A---3------------------------------------------------------
D----------------------------------------------------------

Riff E |3:01||x1|
G----------------------------------------------------------
D----------------------------------------------------------
A----------------------------------------------------------
D---655--355--655--8989--655--355--655--8*-----------------
            
Riff E cont.
G----------------------------------------------------------
D----------------------------------------------------------
A----------------------------------------------------------
D---655--355--655--8989--655--355--655--9*-----------------

Bass Solo |3:46|(whole solo)|x1|
G------------------------------------------10*-------------
D-------------00----------11*--------00-12-----------------
A----------------12-13-12----------------------------------
D---0*-----------------------------------------------------

Bass Solo cont.
G----------------------5-----------------------------------
D--------------------5-------------------------------------
A---1*---0-3-0-----3------------0-1-0-4*-------------------
D--------------4-0-----------00----------------------------

G----------------------5*--------------------/12*-10h12p10--9*-
D--------------------------------------------------------------
A--------------------------------------------------------------
D--------------------------------------------------------------

Riff F |4:42||x4|
G----------------------------------------------------------
D--------------(3-3)-(1-1)---------------------------------
A---3-3---1-1----------------------------------------------
D--------------(3-3)-(3-3)---------------------------------

Ending Riff |5:50||x1|
G----------------------------------------------------------
D--(0-0)---------------------------------------------------
A---------0-0---1-1---3*-1*--0-1-1*--0*--3*----------------
D--(0-0)---------------------------------------------------

Order: Riff A x2
Riff B x2
Fill #1 x1
Riff C x4
Riff B x4
Riff D x4
Riff E x1
Riff A x2
Bass Solo x1
Fill #1 x1
Riff C x4
Riff F x4
Riff B x2
Riff D x3
Ending Riff x1


Текст, аккорды и табулатура для песни "Her Ghost In The Fog", исполняет "Cradle Of Filth".
Используемые в песне аккорды можно найти в разделе Как брать аккорды. Аккорды для шестиструнной гитары. Другие песни можно найти на нашем сайте, воспользовавшись алфавитным указателем вверху страницы.


 
Ошибка в тексте? Выделите ошибку и нажмите Ctrl+Enter