Tune the guitar down 1 whole step so the tuning from low to high is: DGCFAD. You will have to work out how many times to do each chord from the song...

x - means pm (palm mute)
(x) - means that the note is played VERY fast.
(pick slide at start)
Riff 1


D-0-4-3-2-0--------------------------------------
G-2-6-5-4-2-----8(8)-7(7)----------8(8)-7(7)-----
C-2-6-5-4-2-6(6)----------8(8)-9(9)----------9(9)
F------------------------------------------------
A------------------------------------------------
d------------------------------------------------

D-3-3-3-3-3-3-3-3-3-3--------------------
G-5-5-5-5-5-5-5-5-5-5--------------------
C---------------------4-5-4~-4~-4~-4~-4~-
F----------------------------------------
A----------------------------------------
d----------------------------------------

Riff 2
    x x x   x x x   x x x   x x x
D-7-7-7-7-7-7-7-7-5-5-5-5-5-5-5-5-5-
G-9-------9-------7-------7-------7-
C-----------------------------------
F-----------------------------------
A-----------------------------------
d-----------------------------------

D----------------------------
G---------7-------7-------5--
C-5-7-5-4---5-4-5---5-4-5---5
F----------------------------
A----------------------------
d----------------------------

    x x x   x x x   x x x   x x x
D-7-7-7-7-7-7-7-7-5-5-5-5-5-5-5-5-5-
G-9-------9-------7-------7-------7-
C-----------------------------------
F-----------------------------------
A-----------------------------------
d-----------------------------------

D-----------------------------
G---------7-------------------
C-5-7-5-4-----7---5---4---2---
F-----------4---4---4---4---4-
A-----------------------------
d-----------------------------

Riff 3 - play VERY fast (palm muted where the x's are)
  xxxxxxxxxxxxxxxxxxxx
D-00000000000000000000-------------3-3-3-2-3
G-22222222222222222222-1-3-1-0-1-0----------
C-------------------------------------------
F-------------------------------------------
A-------------------------------------------
d-------------------------------------------

Riff 4

D------------------------------------------------
G------------------------------------------------
C-----------------2-------2-------3-------3------
F-2-4-5-4-2-4-5-4---4-5-4---4-5-4---4-5-4---4-5-4
A------------------------------------------------
d------------------------------------------------

D-----------------
G-----------------
C---5-4-5-7-5-4-5-
F-5---------------
A-----------------
d-----------------

Riff 5 - This riff has 4 different endings each time it's played.

D-6-5-5-5-5-3-5-5-5-5-6-5-5-5-5-6--8--
G-8-7-7-7-7-5-7-7-7-7-8-7-7-7-7-8-10--
C-------------------------------------
F-------------------------------------
A-------------------------------------
d-------------------------------------

D-6-5-5-5-5-3-5-5-5-5-6-5-5-5-5-1-
G-8-7-7-7-7-5-7-7-7-7-8-7-7-7-7-3-
C---------------------------------
F---------------------------------
A---------------------------------
d---------------------------------

D-6-5-5-5-5-3-5-5-5-5-6-5-5-5-5-6--8-
G-8-7-7-7-7-5-7-7-7-7-8-7-7-7-7-8-10-
C------------------------------------
F------------------------------------
A------------------------------------
d------------------------------------

D-6-5-5-5-5-3-5-5-5-5-6-5-5-5-5-6---
G-8-7-7-7-7-5-7-7-7-7-8-7-7-7-7-8-4-
C---------------------------------6-
F-----------------------------------
A-----------------------------------
d-----------------------------------

Ending

D-----------------0-
G------------9----2-
C-10-9-7-9-9---9~-2-
F-------------------
A-------------------
d-------------------

Play the riffs in this order:

Riff 1
Riff 2
Riff 3 x4
Riff 2 x2
Riff 4 x4
Riff 5
Riff 1
Bass Solo with drums
Riff 3 x4
Riff 2 x3
Riff 4 x4
Ending
Thats the whole song!! Email me if you want at [email protected] or [email protected]
Rob Hall.


Текст, аккорды и табулатура для песни "Her Ghost In The Fog", исполняет "Cradle Of Filth".
Используемые в песне аккорды можно найти в разделе Как брать аккорды. Аккорды для шестиструнной гитары. Другие песни можно найти на нашем сайте, воспользовавшись алфавитным указателем вверху страницы.


 
Ошибка в тексте? Выделите ошибку и нажмите Ctrl+Enter