transcribida por: saul antonio           [email protected]

mi tercera tab y la mejor cancion de cradle of filth
aqui esta la tab casi completa ya que es bastante dificil la cancion


D-Tune all strings to DGCFAd

Intro Keboard    2 times
(toca esto en tu guitarra)

d|-----------------------------------------------------------|
A|-----------------------------------------------------------|
F|-12-12-9-9-12-12-9-9-12-12-9-12-12-8-8-12-12-8-8-12-12-9---|
C|-----------------------------------------------------------|
G|-----------------------------------------------------------|
D|-----------------------------------------------------------|


d|-----------------------------------------------------------|
A|-----------------------------12-12-------12-12-------------|
F|-12-12-9-9-12-12-9-9-12-12-9-------12-12-------12-12-11-11-|
C|-----------------------------------------------------------|
G|-----------------------------------------------------------|
D|-----------------------------------------------------------|


Main riff 1   2 times

  guitar 1 (Paul)
d|----------------------/-8-7--8-7---8-7---8-7---|
A|-----------------8---/-----------8-----8-----8-|
F|-----------9-8-9---9---------------------------|
C|-------2---------------------------------------|
G|--/----2---------------------------------------|
D|-/-----0---------------------------------------|
  pick
   slide

  guitar 2 (Gian)
d|-----------------------------------------------|
A|-----------------------------------------------|
F|-----------------------------------------------|
C|-------2------------------9------------6-------|
G|-------2------------------9------------6-------|
D|-------0------------------7------------8-------|
  pick
   slide

  guitar 1 (Paul)
d|-----------------/-8-7-----------8--7~---|
A|------------8---/------------------------|
F|------9-8-9---9--------------------------|
C|-2---------------------------------------|
G|-2---------------------------------------|
D|-0---------------------------------------|



  guitar 2 (Gian)
d|-----------------------------------------|
A|-----------------------------------------|
F|-----------------------------------------|
C|-2------------------9------------10-9----|
G|-2------------------9------------10-9----|
D|-0------------------7------------8--7----|



Riff 2    2 times
 both guitars
d|-------------------------------|
A|-------------------------------|
F|-------------------------------|
C|-2--2-5--5-4-3---2--2-6--6-5-4-|
G|-2--2-5--5-4-3---2--2-6--6-5-4-|
D|-0--0-3--3-2-1---0--0-4--4-3-2-|



Riff 3    1 time     (no estoy seguro...)
  both guitars
d|------------------------------------------------|
A|------------------------------------------------|
F|------------------------------------------------|
C|-9-10-----12-11-----11---9-10-----13-11---------|
G|-7-8------10-9------9~---7-8------11-9----------|
D|-----0000------0000----------0000------0000-10~-|


d|------------------------------------------------|
A|------------------------------------------------|
F|------------------------------------------------|
C|-9-10----11-12------11---9-10-----12-11---------|
G|-7-8------9-10------9~---7-8------10-9----------|
D|-----0000------0000----------0000------0000-10~-|


Riff 2    2 times
 both guitars
d|-------------------------------|
A|-------------------------------|
F|-------------------------------|
C|-2--2-5--5-4-3---2--2-6--6-5-4-|
G|-2--2-5--5-4-3---2--2-6--6-5-4-|
D|-0--0-3--3-2-1---0--0-4--4-3-2-|



Main riff 1   2 times

  guitar 1 (Paul)
d|----------------/-8-7--8-7---8-7---8-7---|
A|-----------8---/-----------8-----8-----8-|
F|-----9-8-9---9---------------------------|
C|-2---------------------------------------|
G|-2---------------------------------------|
D|-0---------------------------------------|



  guitar 2 (Gian)
d|-----------------------------------------|
A|-----------------------------------------|
F|-----------------------------------------|
C|-2------------------9------------10------|
G|-2------------------9------------10------|
D|-0------------------7------------8-------|



  guitar 1 (Paul)
d|-----------------/-8-7-----------8--7~---|
A|------------8---/------------------------|
F|------9-8-9---9--------------------------|
C|-2---------------------------------------|
G|-2---------------------------------------|
D|-0---------------------------------------|



  guitar 2 (Gian)
d|-----------------------------------------|
A|-----------------------------------------|
F|-----------------------------------------|
C|-2------------------9------------10-9----|
G|-2------------------9------------10-9----|
D|-0------------------7------------8--7----|


Keboard riff

Riff 4   4 times

  both guitars
d|--------------------------------------------------------|
A|--------------------------------------------------------|
F|--------------------------------------------------------|
C|--------------------------------------------------------|
G|--/-12-8-8----12-8-8---9-11----12-8-8----12-11-11-14-14-|
D|-/--10-6-6----10-6-6---7--9----10-6-6----10--9--9-12-12-|
 pick
slide


0Riff 5   2 times

   both guitars
d|--------------------------------------------------------|
A|--------------------------------------------------------|
F|--------------------------------------------------------|
C|--------------------------------------------------------|
G|-13-9-9----13--9-9--10-12----13--9-9----13--12-12-15-15-|
D|-11-7-7----11--7-7---8-10----11--7-7----11--10-10-13-13-|



Riff 6   1 time

  guitar 1 (Paul)
d|-------------------------------11-14-14-11-14^13-|
A|---11-12-11---11-11-10-10---11-------------------|
F|-8----------8-------------8----------------------|
C|-------------------------------------------------|
G|-------------------------------------------------|
D|-------------------------------------------------|


Main riff 1   8 times

  guitar 1 (Paul)
d|----------------/-8-7--8-7---8-7---8-7---|
A|-----------8---/-----------8-----8-----8-|
F|-----9-8-9---9---------------------------|
C|-2---------------------------------------|
G|-2---------------------------------------|
D|-0---------------------------------------|



  guitar 2 (Gian)
d|-----------------------------------------|
A|-----------------------------------------|
F|-----------------------------------------|
C|-2------------------9------------10------|
G|-2------------------9------------10------|
D|-0------------------7------------8-------|



  guitar 1 (Paul)
d|-----------------/-8-7-----------8--7~---|
A|------5-4-5-8---/------------------------|
F|------9-8-9---9--------------------------|
C|-2---------------------------------------|
D|-0---------------------------------------|



  guitar 2 (Gian)
d|-----------------------------------------|
A|-----------------------------------------|
F|-----------------------------------------|
C|-2------------------9------------10-9----|
G|-2------------------9------------10-9----|
D|-0------------------7------------8--7----|



Текст, аккорды и табулатура для песни "From The Cradle To Enslave", исполняет "Cradle Of Filth".
Используемые в песне аккорды можно найти в разделе Как брать аккорды. Аккорды для шестиструнной гитары. Другие песни можно найти на нашем сайте, воспользовавшись алфавитным указателем вверху страницы.


 
Ошибка в тексте? Выделите ошибку и нажмите Ctrl+Enter